Foo Fighters - Next Year Chords & Tabs

 

Next Year Chords & Tabs

Foo Fighters Chords & Tabs

Version: 7 Type: Tab 0 ratings
1 star 2 stars 3 stars 4 stars 5 stars
comments

Next Year Tab

   
Next Year
Foo fighters
Tabbed by:Mariano Arnaiz
marianoarnaiz@hotmail.com


This is a great song so enjoy it and keep rocking!!!!! 
VERSE 1

Guitar 1
   G  D/f#  C  C?                                     
e---3---2----0--3--        
B---3---3----1--1--
G---0---2----0--0--   x3  
D---0---0----2--2--
A---2---0----3--3--
E---3---2----------

Guitar 2
    G5 D5 C5                                       
e---x---x--x-        
B---x---x--x-
G---x---7--5-   x3  
D---5---7--5-
A---5---5--3-
E---3---x--x-


I'm in the sky tonight
There I can keep by your side
Watching the wide world riot

Guitar 1
    Am  C  D/f#  G
e---0---0--2-----3--
B---1---1--3-----3--
G---2---0--2-----0--   x1  
D---2---2--0-----0--
A---0---3--0-----2--
E----------3-----3

Guitar 2
    A5  C5 D5 G
e---x---x--x--x--
B---x---x--x--x--
G---x---5--7--x--   x1  
D---7---5--7--5--
A---7---3--5--5--
E---5---x--x--3-

I'm hiding out
I'll be coming home next year

The repeat the complite verse
CHORUS

Guitar 1
   G   C*                                       
e---3--3--        
B---3--3--
G---0--0--   x2  
D---0--2--
A---2--3--
E---3-----

Guitar 2
    G5 C5                                       
e---x--x-        
B---x--x-
G---x--5-   x2  
D---5--5-
A---5--3-
E---3--x-
[ Tab from: http://www.guitartabs.cc/tabs/f/foo_fighters/next_year_tab_ver_7.html ]
Come on get on get on
Take it till life runs out

Guitar 1
   C* C*? D/f#                                        
e--3--0----2-        
B--3--3----3-
G--0--0----2-   x1  
D--2--2----0-
A--3--3----0-
E-----------3-

Guitar 2
    C5                                       
e---x---x        
B---x---x
G---5---7   x1  
D---5---7
A---3---5
E---x---x

No one can find us now,
Living with our heads underground


VERSE 2

The same that the first but do not reapet it

I'm in the sky tonight
There I can keep by your side
Watching the wide world wind around and around
I'll be coming home next year




Chorus 2

The same that the first

Interlude

Guitar 1
1.-Am Asus4  (Say good-bye) 
2.-C         (Say good-bye)   
3.- Am Asus4 (Say good-bye)
4.-C         (Say good-bye)

Guitar 2

1.-A5   (Say good-bye) 
2.-C5         (Say good-bye)   
3.-A5 (Say good-bye)
4.-C5         (Say good-bye)

Asus4: 
e-0-        
B-3-
G-2-     
D-2-
A-0-
E---

End chords

   G  D/f#  C  C?                                     
e---3---2----0--3--        
B---3---3----1--1--
G---0---2----0--0--     
D---0---0----2--2--
A---2---0----3--3--
E---3---2----------

    G5 D5 C5                                       
e---x---x--x-        
B---x---x--x-
G---x---7--5-     
D---5---7--5-
A---5---5--3-
E---3---x--x-

I'll be coming home next year
Fade out
Comments