Foo Fighters - New Way Home Chords & Tabs

 

New Way Home Chords & Tabs

Foo Fighters Chords & Tabs

Version: 1 Type: Tab 0 ratings
1 star 2 stars 3 stars 4 stars 5 stars
comments

New Way Home Tab

   
#----------------------------------PLEASE NOTE--------------------------------#
#This file is the author's own work and represents their interpretation of the#
#song. You may only use this file for private study, scholarship, or research.#
#-----------------------------------------------------------------------------#

From: "AARON THOMAS" 
Subject: f/foo_fighters/new_way_home.crd
Date: Thu, 07 May 1998 14:08:15 PDT

SONG:NEW WAY HOME
ALBUM:THE COLOUR AND THE SHAPE
ARTIST:FOO FIGHTERS
TABBED BY:AARON THOMAS (MONKEYWRENCHER1@HOTMAIL.COM/)
this song is okay, it also easy. please email any corrections.if anyone 
wants to know how to play this in drop D just e-mail me.

INTRO:
E----------------------
B----------------------
G----------------------
D-7-7-7-7-7-4\7\9\11-12
A-7-7-7-7-7------------
E-5-5-5-5-5-2\5\7\9--10
[ Tab from: http://www.guitartabs.cc/tabs/f/foo_fighters/new_way_home_tab.html ]
VERSE:
E----------------------------------------------
B----------------------------------------------
G-------------------------------7-7-7-7-5-5-5-5
D-7-7-7-7-7-4-4-4-4-4-5-5-5-5-5-7-7-7-7-5-5-5-5
A-7-7-7-7-7-4-4-4-4-4-5-5-5-5-5-5-5-5-5-3-3-3-3
E-5-5-5-5-5-2-2-2-2-2-3-3-3-3-3----------------

CHORUS:
E----------------------------------------------
B----------------------------------------------
G-----------10-10-10-10-10-7-7-7-7-7-----------
D-7-7-7-7-7-10-10-10-10-10-7-7-7-7-7-5-5-5-5-5-
A-7-7-7-7-7-8--8--8--8--8--5-5-5-5-5-5-5-5-5-5-
E-5-5-5-5-5--------------------------3-3-3-3-3-
*DO THE SAME THING JUST LEAVE OUT THE D CHORD, THEN PLAY THE ENTIRE 
CHORUS*

BRIDGE:
E------------------------------------------------
B------------------------------------------------
G-----9-9-9-9-9-9-----9-9-9-9-9-9---------7-7-7-7
D-7-7-9-9-9-9-9-9-7-7-9-9-9-9-9-9-4-4-4-4-7-7-7-7
A-7-7-7-7-7-7-7-7-7-7-7-7-7-7-7-7-4-4-4-4-5-5-5-5
E-5-5-------------5-5-------------2-2-2-2--------
*THROW IN A G CHORD INSTEAD OF A D CHORD AT THE END OF BRIDGE*
Comments