Foo Fighters - New Way Home Chords & Tabs

 

New Way Home Chords & Tabs

Foo Fighters Chords & Tabs

Version: 2 Type: Bass Tab 0 ratings
1 star 2 stars 3 stars 4 stars 5 stars
comments

New Way Home Bass Tab

New Way Home - Foo Fighters (tabbed by: ryan b)

Riff A: (twice)
A--00000000-00000000-00000000-00000000---
E----------------------------------------

Riff B: (once)
A--00000000-00000000----------------------
E----------------------22222222-22222222--

Riff C: (once)
A----------------------55555555-33333333--
E--33333333-33333333----------------------

Riff B: (once)
Riff C: (once)
Riff A: (twice)
Riff B: (once)
Riff C: (once)
Riff B: (once)
Riff C: (once)
[ Tab from: http://www.guitartabs.cc/tabs/f/foo_fighters/new_way_home_btab_ver_2.html ]
Riff D: (once)
A--00000000---------------55555555------------0-------------
E-------------11111111--------------33333333------1111-1/3--

Riff E: (once)
A--00000000---------------55555555------------0-------
E-------------11111111--------------33333333------11--

Riff F: (once)
A--0000---------------------
E-----------00000000--0000--

Riff G: (once)
A--0000----------------------------------------------55--
E-----------00000000--0000--0000-00-22-22222222-2222-----

Riff F: (once)

Riff H: (once)
A--0000------------------------------------------
E----------00000000--0000--22222222--33333333-3--

Riff D: (26 times)

Comments