Foo Fighters - My Poor Brain Chords & Tabs

 

My Poor Brain Chords & Tabs

Foo Fighters Chords & Tabs

Version: 2 Type: Bass Tab 0 ratings
1 star 2 stars 3 stars 4 stars 5 stars
comments

My Poor Brain Bass Tab

   
My Poor Brain - by the Foo Fighters
Tabbed by  (dusty@flash.net)

Remember this is the basic fundamentals of this song feel free 
to adlib or alter parts to fit your style of playing.

-Distortion Intro- 
 Play these two notes until the verse kicks in (Around 30 times)
G|-----------------|
D|-----------------|
A|-----2----4------|
E|-----------------|

-Sec 1- 
G|------------------------------------------|
D|------------------------------------------|  x5
A|--4-4-4-2-4-2-----2-----2--2-2-2-2---2-3--|
E|--------------0-4---0-4------------4------|

-Sec 2-
G|----------------------------------------------------|
D|---------------------2-1----------------------------|  x2
A|--4-4-4--2-2--2-2-2-------4-4-4--2-2--2-2-2---------|
E|---------------------------------------------3-2-0--|
[ Tab from: http://www.guitartabs.cc/tabs/f/foo_fighters/my_poor_brain_btab_ver_2.html ]
-Sec 1- 
G|------------------------------------------|
D|------------------------------------------|  x4
A|--4-4-4-2-4-2-----2-----2--2-2-2-2---2-3--|
E|--------------0-4---0-4------------4------|

[A]
-Sec 2-
G|----------------------------------------------------|
D|---------------------2-1----------------------------|  x2
A|--4-4-4--2-2--2-2-2-------4-4-4--2-2--2-2-2---------|
E|---------------------------------------------3-2-0--|

-Sec 3-
G|---------------------------------4-----4-----4--------4------------|
D|-------------------------------------------------------------------|  x2
A|------------------2-2-2-2-0-h2-2---4-4---4-4---4--4-4---4-4-2-3-4--|
E|--4-4-4-4-4-4-4-4--------------------------------------------------|

G|------4-----4--------4------------|
D|----------------------------------|  2nd time x6 then Stop
A|--4-4---4-4---4--4-4---4-4-2-3-4--|  
E|----------------------------------|

G|----------------------------------------------|
D|--------------4-4-4-4-4-4-4-4-----------------|  x6
A|--4-4-4-4-4-4-----------------2-2-2-2-0-2-3-4-|
E|----------------------------------------------|

Go Back to [A]
Comments