Foo Fighters - My Hero Chords & Tabs

 

My Hero Chords & Tabs

Foo Fighters Chords & Tabs

Version: 5 Type: Tab 1 rating
1 star 2 stars 3 stars 4 stars 5 stars
comments

My Hero Tab

   
#----------------------------------PLEASE NOTE---------------------------------#
#This file is the author's own work and represents their interpretation of the #
#song. You may only use this file for private study, scholarship, or research. #
#------------------------------------------------------------------------------#
Foo Fighters
My Hero
Tabber: Uunknown


Start Riff

e -------------------------------
b -------------------------------
g -------------------------------
d -------------------------------
a ----------------4-4-4-4-4-4-4-4
E 0-0-0-0-0-0-0-0----------------


Intro

e 0-0-0-0-----0--
b 4-5-4-0-0-0---0
g ---------------
d ---------------
a ---------------
E ---------------

Verse

e 0-0-0-0-0-0-0-0-0-0-0-0-0-0-0-0
b 4-5-5-5-5-5-4-4-7-4-4-4-7-4-4-5
g -------------------------------
d -------------------------------
a -------------------------------
E -------------------------------

Chorus
[ Tab from: http://www.guitartabs.cc/tabs/f/foo_fighters/my_hero_tab_ver_5.html ]
e ---------------------------------------------------------------
b ---------------------------------------------------------------
g ----8~--9~--11~------8---9---6-------8~--9~--11~-----8~--9~--4~
d 7~--x~--x~--x~---7~--x~--x~--x~--2~--x~--x~--x~--2~--x~--x~--x~
a 7~--6~--7~--9~---7~--6~--7~--4~--2~--6~--7~--9~--2~--6~--7~--2~
E 5~---------------5~--------------0~--------------0~------------

Riff 1           Riff 2        Riff 3         Ending

e -----------    e 0-0-0---    e 0x?---0x?    e --------
g -----------    b 4-5-4---    b 0x?---0x?    b --------
g -----------    g ------4^    g 9x?---8x?    g --------
d -----------    d --------    d ---------    d 1h2p1---
a ----4-2----    a --------    a ---------    a -------2
E 2-2-----4-5    E --------    E ---------    E --------

Legend:
^ = bend (the pitch seems lowered rather than raised.. maybe it's whammy bar?)
~ = hold

Song order:

Start Riff
Intro (x6)
Riff 1
Verse (x8)
Chorus (x2)
Riff 1
Riff 2
Verse (x8)
Chorus (x2)
Riff 1
Intro,Riff 2,Intro,Riff 2(u may pick the open e and b strings after the Riff 2 parts, listen!)
Riff 3 (I hear it as drums, but someone sugguested this guitar part to replace it)
Verse (x4)

Chorus (x4)


Footnote:

This is a great song to learn and an easy song to play. I tabbed this for 1 guitar only. This is
the best sounding and easiest way to play the song. I did not actually tab this, I just took the
different versions of the tabs for this song and combined the best sounding parts of the different
tabs into this tab. I selected the easiest way of playing the riffs too. Foo Fighters and Dave
Grohl rocks!!! This song is a tribute to the late Kurt Cobain as well!
Riff 1,Ending
Comments