Foo Fighters - My Hero Chords & Tabs

 

My Hero Chords & Tabs

Foo Fighters Chords & Tabs

Version: 12 Type: Tab 0 ratings
1 star 2 stars 3 stars 4 stars 5 stars
comments

My Hero Tab

   
Song: My Hero
Artist: Foo Fighters
Album: The Colour And The Shape
Genre: Rock

Intro
Guitar 1
e|----------------------------------|    |-0-0-0-0---0-0-0-0--|
B|----------------------------------|    |-4-5-4-0---4-5-4-0--|
G|----------------------------------|    |-------4---------4--|
D|----------------------------------| x2 |--------------------|
A|------------------4-4-4-4-4-4-4-4-|    |--------------------|
E|--0-0-0-0-0-0-0-0-----------------|    |--------------------|

Guitar 1
e|--0-0-0-0-0-0-0-0-0-0-0-0-0-0-0-0-0--|
B|--4-5-5-5-5-5-5-4-4-7-4-4-4-7-5-5-5--|
G|-------------------------------------|
D|-------------------------------------| x4
A|-------------------------------------|
E|-------------------------------------|

Guitar 2
e|--0-0-0-0-0-0-0-0------------------|
B|--0-0-0-0-0-0-0-0------------------|
G|--1-1-1-1-1-1-1-1-6-6-6-6-6-6-6-6--|
D|--2-2-2-2-2-2-2-2-6-6-6-6-6-6-6-6--| x4
A|--2-2-2-2-2-2-2-2-4-4-4-4-4-4-4-4--|
E|--0-0-0-0-0-0-0-0------------------|

Guitar 1
e|--------------|
B|--------------|
G|--------------|
D|--------------|
A|-----4-2------|
E|-2-2-----4-5--|

Verse
Guitar 1
e|--0-0-0-0-0-0-0-0-0-0-0-0-0-0-0-0-0--|
B|--4-5-5-5-5-5-5-4-4-7-4-4-4-7-5-5-5--|
G|-------------------------------------|
D|-------------------------------------|
A|-------------------------------------|
E|-------------------------------------|

Guitar 2
e|--0-0-0-0-0-0-0-0------------------|
B|--0-0-0-0-0-0-0-0------------------|
G|--1-1-1-1-1-1-1-1-6-6-6-6-6-6-6-6--|
D|--2-2-2-2-2-2-2-2-6-6-6-6-6-6-6-6--|
A|--2-2-2-2-2-2-2-2-4-4-4-4-4-4-4-4--|
E|--0-0-0-0-0-0-0-0------------------|

Chorus x2
Both Guitars
e|-------------------------------------|
B|-------------------------------------|
G|---------8-8-8-8-9-9-9-9-11-11-11-11-|
D|-7-7-7-7-x-x-x-x-x-x-x-x-x--x--x--x--|
A|-7-7-7-7-6-6-6-6-7-7-7-7-9--9--9--9--|
E|-5-5-5-5-----------------------------|
 
e|-------------------------------------|
B|-------------------------------------|
G|---------8-8-8-8-9-9-9-9-11-11-11-11-|
D|-2-2-2-2-x-x-x-x-x-x-x-x-x--x--x--x--|
A|-2-2-2-2-6-6-6-6-7-7-7-7-9--9--9--9--|
E|-0-0-0-0-----------------------------|

e|-------------------------------------|
B|-------------------------------------|
G|---------8-8-8-8-9-9-9-9-11-11-11-11-|
D|-7-7-7-7-x-x-x-x-x-x-x-x-x--x--x--x--|
A|-7-7-7-7-6-6-6-6-7-7-7-7-9--9--9--9--|
E|-5-5-5-5-----------------------------|

e|-----------------------------------------|--------------|
B|-----------------------------------------|--------------|
G|---------11-11-11-11-13-13-13-13-8-8-8-8-|--------------|
D|-2-2-2-2-x--x--x--x--x--x--x--x--x-x-x-x-|--------------|
A|-2-2-2-2-9--9--9--9--11-11-11-11-6-6-6-6-|-----4-2------|
E|-0-0-0-0---------------------------------|-2-2-----4-5--|

e|-0-0-0-0-|
B|-4-5-4-0-|
G|-------4-|
D|---------|
A|---------|
E|---------|

Verse
Guitar 1
e|--0-0-0-0-0-0-0-0-0-0-0-0-0-0-0-0-0--|
B|--4-5-5-5-5-5-5-4-4-7-4-4-4-7-5-5-5--|
G|-------------------------------------|
D|-------------------------------------|
A|-------------------------------------|
E|-------------------------------------|
[ Tab from: http://www.guitartabs.cc/tabs/f/foo_fighters/my_hero_tab_ver_12.html ]
Guitar 2
e|--0-0-0-0-0-0-0-0------------------|
B|--0-0-0-0-0-0-0-0------------------|
G|--1-1-1-1-1-1-1-1-6-6-6-6-6-6-6-6--|
D|--2-2-2-2-2-2-2-2-6-6-6-6-6-6-6-6--|
A|--2-2-2-2-2-2-2-2-4-4-4-4-4-4-4-4--|
E|--0-0-0-0-0-0-0-0------------------|

Chorus x2
Both Guitars
e|-------------------------------------|
B|-------------------------------------|
G|---------8-8-8-8-9-9-9-9-11-11-11-11-|
D|-7-7-7-7-x-x-x-x-x-x-x-x-x--x--x--x--|
A|-7-7-7-7-6-6-6-6-7-7-7-7-9--9--9--9--|
E|-5-5-5-5-----------------------------|
 
e|-------------------------------------|
B|-------------------------------------|
G|---------8-8-8-8-9-9-9-9-11-11-11-11-|
D|-2-2-2-2-x-x-x-x-x-x-x-x-x--x--x--x--|
A|-2-2-2-2-6-6-6-6-7-7-7-7-9--9--9--9--|
E|-0-0-0-0-----------------------------|

e|-------------------------------------|
B|-------------------------------------|
G|---------8-8-8-8-9-9-9-9-11-11-11-11-|
D|-7-7-7-7-x-x-x-x-x-x-x-x-x--x--x--x--|
A|-7-7-7-7-6-6-6-6-7-7-7-7-9--9--9--9--|
E|-5-5-5-5-----------------------------|

e|-----------------------------------------|--------------|
B|-----------------------------------------|--------------|
G|---------11-11-11-11-13-13-13-13-8-8-8-8-|--------------|
D|-2-2-2-2-x--x--x--x--x--x--x--x--x-x-x-x-|--------------|
A|-2-2-2-2-9--9--9--9--11-11-11-11-6-6-6-6-|-----4-2------|
E|-0-0-0-0---------------------------------|-2-2-----4-5--|

Interlude
Guitar 1
e|-0-0-0-0-|
B|-4-5-4-0-|
G|-------4-|
D|---------| x4
A|---------|
E|---------|

Guitar 2
e|--0-----0-------0-----0----------|
B|--0-----0-------0-----0----------|
G|--1-----1---6---1-----1---6------|
D|--2-----2---6---2-----2---6---2--|
A|--2-----2---4---2-----2---4---2--|
E|--0-----0-------0-----0-------0--|

Verse
Guitar 1
e|--0-0-0-0-0-0-0-0-0-0-0-0-0-0-0-0-0--|
B|--4-5-5-5-5-5-5-4-4-7-4-4-4-7-5-5-5--|
G|-------------------------------------|
D|-------------------------------------|
A|-------------------------------------|
E|-------------------------------------|

Guitar 2
e|--0-0-0-0-0-0-0-0------------------|
B|--0-0-0-0-0-0-0-0------------------|
G|--1-1-1-1-1-1-1-1-6-6-6-6-6-6-6-6--|
D|--2-2-2-2-2-2-2-2-6-6-6-6-6-6-6-6--|
A|--2-2-2-2-2-2-2-2-4-4-4-4-4-4-4-4--|
E|--0-0-0-0-0-0-0-0------------------|

Chorus x4
Both Guitars
e|-------------------------------------|
B|-------------------------------------|
G|---------8-8-8-8-9-9-9-9-11-11-11-11-|
D|-7-7-7-7-x-x-x-x-x-x-x-x-x--x--x--x--|
A|-7-7-7-7-6-6-6-6-7-7-7-7-9--9--9--9--|
E|-5-5-5-5-----------------------------|
 
e|-------------------------------------|
B|-------------------------------------|
G|---------8-8-8-8-9-9-9-9-11-11-11-11-|
D|-2-2-2-2-x-x-x-x-x-x-x-x-x--x--x--x--|
A|-2-2-2-2-6-6-6-6-7-7-7-7-9--9--9--9--|
E|-0-0-0-0-----------------------------|

e|-------------------------------------|
B|-------------------------------------|
G|---------8-8-8-8-9-9-9-9-11-11-11-11-|
D|-7-7-7-7-x-x-x-x-x-x-x-x-x--x--x--x--|
A|-7-7-7-7-6-6-6-6-7-7-7-7-9--9--9--9--|
E|-5-5-5-5-----------------------------|

e|-----------------------------------------|--------------|
B|-----------------------------------------|--------------|
G|---------11-11-11-11-13-13-13-13-8-8-8-8-|--------------|
D|-2-2-2-2-x--x--x--x--x--x--x--x--x-x-x-x-|--------------|
A|-2-2-2-2-9--9--9--9--11-11-11-11-6-6-6-6-|-----4-2------|
E|-0-0-0-0---------------------------------|-2-2-----4-5--|

Guitar 1
e|-0-0-0-0-|
B|-4-5-4-0-|
G|-------4-|
D|---------|
A|---------|
E|---------|
Comments