Foo Fighters - My Hero Chords & Tabs

 

My Hero Chords & Tabs

Foo Fighters Chords & Tabs

Version: 1 Type: Bass Tab 0 ratings
1 star 2 stars 3 stars 4 stars 5 stars
comments

My Hero Bass Tab

-=My Hero=- from the Colour and the Shape by the Foo Fighters..
andy_cyford@yahoo.com

G|----------------------------|-----------------------------------
D|----------------------------|-----------------------------------
A|-----------4-4-4-4-4-4-4-4--|-------4-2-------------------------
E|-0-0-0-0-0------------------|--2--2------4-5-------------------- 
play several times.... then right before lyrics start.. 
[ Tab from: http://www.guitartabs.cc/tabs/f/foo_fighters/my_hero_btab.html ]
-=chorus=-
G|----------------------------------------------------------------
D|----------------------------------------------------------------
A|-------------------------------4-4-4-4--------------------------
E|5-5-5-5-5-5-5-5-5-5-5-5-5-5-5----------0-0-0-0-0-0-0-0--7-7-7-7- 

-=quiet bridge part=-
G|----------------------------------------------------------------
D|----------------------------------------------------------------
A|----------4-----------4-----------------------------------------
E|-0----0-------0----0--------0-0-0-0-0-0-0-0-0-0-0-0-0-0-0-0-0--- 
gradually louder.....

Comments