Foo Fighters - Monkey Wrench Chords & Tabs

 

Monkey Wrench Chords & Tabs

Foo Fighters Chords & Tabs

Version: 6 Type: Tab 0 ratings
1 star 2 stars 3 stars 4 stars 5 stars
comments

Monkey Wrench Tab

   
Foo Fighters
Monkey Wrench
The Colour And The Shape
Tabbed by: Bal Sandher

This tab is defenitely correct, you just have to work on the timing.
I've added all the lyrics and fills as well. This is fully transcribed
for two guitars.
 
Intro:
|--------||
|--------||	Start Off with this slide before Guitar 1 Starts
|--------||
|--------||
|--15/---||

Guitar1:                                                                                     
E||-0--0--0--0-0--0-0--0--|-0--0--0--0--0--0--0--0--|-0--0--0--0--0--0--0--0--|
B||-0--0--0--0-0--0-0--0--|-0--0--0--0--0--0--0--0--|-0--0--0--0--0--0--0--0--|
G||-11-11/9--9/8--8/6--6/-|-9--9/-8--8/-6--6/-4--4/-|-6--6/-4--4/-1--1/-4--4/-|
D||-----------------------|-------------------------|-------------------------|
A||-----------------------|-------------------------|-------------------------|
D||-----------------------|-------------------------|-------------------------|

Ĺ pre-bend-----|                                                            
|--0--0--0--0--0--0--0--0--|
|--0--0--0--0--0--0--0--0--|
|--6--6/-4--4--6b-6b-6--4--|  x2
|--------------------------|
|--------------------------|
|--------------------------|
Hit mainly the G string, and lightly brush the b and e strings

Guitar 2:
E||------------------------|-------------------------|-------------------------|
B||------------------------|-------------------------|-------------------------|
G||-4--4--4--4--4--4--4--4-|-4--4--4--4--4-----------|-------------------------|
D||-4--4--4--4--4--4--4--4-|-4--4--4--4--4--4--4--4--|-4--2--2--2--2--2--2--2--|
A||-2--2--2--2--2--2--2--2-|-2--2--2--2--2--4--4--4--|-4--2--2--2--2--2--2--2--|
D||------------------------|----------------4--4--4--|-4--2--2--2--2--2--2--2--|
                                                       
|--------------------------||
|--------------------------||
|--------------------------||
|--2--2--2--0--2--0--2--0--|| x2 Then pause and go straight into verse
|--2--2--2--0--2--0--2--0--||
|--2--2--2--0--2--0--2--0--||

Verse:
Guitars 1 and 2
E||-----------------------------------------------------------|
B||-----------------------------------------------------------|
G||-4---------------------------------------------------------|
D||-4-4-4-4-4-4-4-4-4-4-4-4-4-4------------------------h---h--|	x4
A||-2-2-2-2-2-2-2-2-2-2-4-4-4-4-2-2-2-2-2-2-2-2-2-2-0-2-0-2-0-|
D||---------------------4-4-4-4-2-2-2-2-2-2-2-2-2-2-0-2-0-2-0-|
    PM--------------------------------------------|

Verse 1:
What have we done with innocence?
It disappeared with time it never made much sense.
Adolescent Resident
Wasting Another night on planning my revenge

Verse 2:
All this time to make amends
What do you do when all your enemies are friends?
Now and then iíll try to bend
Under pressure, winding up snapping in the end

Pre-Chorus:
E||--------------------|---------------------|---------------------|-----------|
B||--------------------|---------------------|---------------------|-----------|
G||--------------------|---------------------|---------------------|-2----2----|
D||-2----2----2----0---|-2----2----2----0----|--2----0----2----0---|-4----4----|
A||-2----2----2----0---|-2----2----2----0----|--2----0----2----0---|-----------|
D||-2----2----2----0---|-2----2----2----0----|--2----0----2----0---|-----------|
                          x3
One In ten
One In ten
One in teeennn!!!

Fill before Chorus:
E||----------|
B||----------|
G||----------|
D||----------|
A||--2/15----|
D||--2/15----|

Chorus:
Guitar 1:
E||-----------------------|-----------------------|------------------------|
B||-----------------------|-----------------------|------------------------|
G||-----------------------|-----------------------|------------------------|
D||--9----9----9----9--6--|--6----6----6----6--4--|--2--2--2----2--2----4--|
A||--9----9----9----9--6--|--6----6----6----6--4--|--2--2--2----2--2----4--|
D||--9----9----9----9--6--|--6----6----6----6--4--|--2--2--2----2--2----4--|
                                
|----------------------|-------||
|----------------------|-------||
|----------------------|--5----|| x4
|--2----2----4----2----|--5----|| 
|--2----2----4----2----|--3----||
|--2----2----4----2----|-------||
[ Tab from: http://www.guitartabs.cc/tabs/f/foo_fighters/monkey_wrench_tab_ver_6.html ]
Guitar 2:
E||--------------------------|-----------------------|-------------------------|
B||-----------------------9--|-9----9----9----9--11--|--9--9--9----9--9----11--|
G||-11----11----11----11--8--|-8----8----8----8--11--|--9--9--9----9--9----11--|
D||-9-----9-----9-----9---6--|-6----6----6----6--11--|--9--9--9----9--9----11--|
A||-9-----9-----9-----9---6--|-6----6----6----6--9---|--7--7--7----7--7----9---|
D||-9-----9-----9-----9---6--|-6----6----6----6------|-------------------------|
 
|-----------------------|--------||
|--9----9----11----9----|--------||
|--9----9----11----9----|--------|| x4
|--9----9----11----9----|--10----||
|--7----7----9-----7----|--10----||
|-----------------------|--10----||

Donít Wanna Be your Monkey Wrench
One More indecent incident
Iíd Rather Leave than Suffer this
Donít wanna Be your Monkey Wrench

Bridge:
Guitars 1 and 2:
E||----------------------|----------------------|----------------------|
B||----------------------|----------------------|----------------------|
G||-------9--------------|----------------------|----------------------|
D||--6----9----9----5----|--5----5----5----5----|--4----2----2----2----|
A||--6----7----9----5----|--5----5----5----5----|--4----2----2----2----|
D||--6---------9----5----|--5----5----5----5----|--4----2----2----2----|
                                               
|----------------------|----------------------||
|----------------------|----------------------||
|----------------------|----------------------||
|--4----2----2----2----|--2----2----2----0----||
|--4----2----2----2----|--2----2----2----0----||
|--4----2----2----2----|--2----2----2----0----||

Temper,	
Temper,
Temper

Fill: A||--/14\--|
								 
|------------------------||----------------------|       |-------||
|------------------------||----------------------|       |-------||
|------------------------||----------------------|  X2   |--5----||
|--2--2--2----2--2----4--||--2----2----4----2----|       |--5----|| 
|--2--2--2----2--2----4--||--2----2----4----2----|       |--3----||
|--2--2--2----2--2----4--||--2----2----4----2----|       |-------||

Guitar 1 and 2:
E||------------------------|-------------------------|-------------------------|
B||------------------------|-------------------------|-------------------------|
G||-4--4--4--4--4--4--4--4-|-4--4--4--4--4-----------|-------------------------|
D||-4--4--4--4--4--4--4--4-|-4--4--4--4--4--4--4--4--|-4--2--2--2--2--2--2--2--|
A||-2--2--2--2--2--2--2--2-|-2--2--2--2--2--4--4--4--|-4--2--2--2--2--2--2--2--|
D||------------------------|----------------4--4--4--|-4--2--2--2--2--2--2--2--|
                                                       
|--------------------------||
|--------------------------||
|--------------------------||
|--2--2--2--0--2--0--2--0--|| x4
|--2--2--2--0--2--0--2--0--||
|--2--2--2--0--2--0--2--0--||

One last thing before I quit, 
I never wanted anymore that I could fit into my head,
I still remember every single
Word you said and all that shit that 
Somehow came along with it
Still thereís one thing that comforts me 
Since I was always caged and now iím Freeeeeeeeee!!!!!!!

Pre-Chorus:
E||----------------------|----------------------|----------------------|-------|
B||----------------------|----------------------|----------------------|-------|
G||----------------------|----------------------|----------------------|--2--2-|
D||--2----2----2----0----|--2----2----2----0----|--2----0----2----0----|--4--4-|
A||--2----2----2----0----|--2----2----2----0----|--2----0----2----0----|-------|
D||--2----2----2----0----|--2----2----2----0----|--2----0----2----0----|-------|

Play Normal Chorus Again, then play outro:
Guitar 1 Plays intro Riff 1
Guitar 2:
E||-----------------------------------------------------------|
B||-----------------------------------------------------------|
G||-4---------------------------------------------------------|
D||-4-4-4-4-4-4-4-4-4-4-4-4-4-4------------------------h---h--|	x4
A||-2-2-2-2-2-2-2-2-2-2-4-4-4-4-2-2-2-2-2-2-2-2-2-2-0-2-0-2-0-|
D||---------------------4-4-4-4-2-2-2-2-2-2-2-2-2-2-0-2-0-2-0-|

Donít Wanna Be Your Monkey Wrench (Fall in Fall out)     x3

Fill: A||--/14\--|

|----------------------|----------------------|      			
|----------------------|----------------------|      				
|----------------------|----------------------| Add    		
|--2----2----4----2----|--2----2----4----2----| Fill onto   		
|--2----2----4----2----|--2----2----4----2----| end x3, except the	
|--2----2----4----2----|--2----2----4----2----| last time do this:     	

|--------||
|--5--4--|| 
|--5--4--||
|--3--2--|| 
|--------||


Thankyou.
Look out for some more of my foo fighters Tabs soon.....
Comments