Foo Fighters - Monkey Wrench Chords & Tabs

 

Monkey Wrench Chords & Tabs

Foo Fighters Chords & Tabs

Version: 3 Type: Bass Tab 0 ratings
1 star 2 stars 3 stars 4 stars 5 stars
comments

Monkey Wrench Bass Tab

   
Song:monkey wrench
artist:foo fighters
tab by:gie edilo
pass arranged by:leander m.
note:drop D

intro/stanza:
    F F F F F F F F F F F F  G G G    F  F F F F F 
G|--------------------------------|-----------------|
D|--------------------------------|-----------------|
A|--3-3-3-3-3-3-3-3-3-3-3-3-------|-----------------|
D|--------------------------5-5-5-|--5p3-3-3-3-3-3--|
    F Eb F Eb F Eb F C C C C C C C C C C G G G F F F F F F
G|-----------------------------------------------------------------|
D|-----------------------------------------------------------------|
A|-------------------3-3-3-3-3-3-3-3-3-3---------------------------|
D|--3-1-3-1-3-1-3-1----------------------5-5-5p3-3-3-3-3-3---------|
  F F F F F F  Eb F Eb F Eb F   F F F F F F F Eb F Eb F Eb F F F F  
-------------------------------------------------------------------|
-------------------------------------------------------------------|
-------------------------------------------------------------------|
--3-3-3-3-3-3--1-3-1-3-1-3-1-3--3-3-3-3-3-3-3--1-3-1-3-1-3--3-3-3--|

refrain:
   F F F F F F F F Eb F Eb F Eb F Eb F F F F F
G|------------------------------------------------------|
D|------------------------------------------------------|
A|------------------------------------------------------|
D|--3-3-3-3-3-3-3-3--1-3-1-3-1-3-1-3--3-3-3-3-3---------|
[ Tab from: http://www.guitartabs.cc/tabs/f/foo_fighters/monkey_wrench_btab_ver_3.html ]
chorus:
   F F F  Eb F Eb F Eb C C Eb F A G D G G G  F F F F G F F G GfG F    
G|-----------------------------------------------------------------|
D|-----------------------------------------------------------------|
A|-------------------3-3-------0------------------------4---3------|
D|--3-3-3--1-3-1-3-1-----1-3-5---5-5-5--3-3-3-3-5-3-3-5---3---6----|
    G F F G F F G F F G F F G
G|------------------------------------------------------|
D|------------------------------------------------------|
A|------------------------------------------------------|
D|--5-3-3-5-3-3-5-3-3-5-3-3-5---------------------------|

Bridge:
    F F G F GfC C C C C C C C C C C C G G G 
G|------------------------------------------------------|
D|------------------------------------------------------|
A|----------4-3-3-3-3-3-3-3-3-3-3-3-3-------------------|
D|--3-3-5-3---------------------------5-5-5-------------|

Coda
    G F F F F F F F F F F GfF       C  
G|------------------------------------------------------|
D|------------------------------------------------------|
A|----------------------------------3-3-3-3-3-3-3-3-----|
D|--5-3-3-3-3-3-3-3-3-3-3-4-3-1-3-1---------------------|
    F F F F F G G G G F F F F F F F F F F F F F F  
G|------------------------------------------------------|
D|------------------------------------------------------|
A|--3-3-3-3-3-------------------------------------------|
D|------------5-5-5-5p3-3-3-3-3-3-3-3-3-3-3-3-3-3-------|
    F F G F F G F   G F F G F Gf    C
G|-------------------------------|----------------------|
D|-------------------------------|----------------------|
A|----------------------------4--|--3-------------------|
D|--3-3-5-3-3-5-3-3-5-3-3-5-3----|----------------------|

end
Comments