Foo Fighters - Miracle Chords & Tabs

 

Miracle Chords & Tabs

Foo Fighters Chords & Tabs

Version: 1 Type: Tab 0 ratings
1 star 2 stars 3 stars 4 stars 5 stars
comments

Miracle Tab

Foo Fighters - Miracle

Artist: Foo Fighters
Album: In Your Honor
Genre: Rock

Tuning: eBGDAE


Intro
e||--0-0-0--||
B||--3-3-3--||
G||--2-2-0--||
D||--0-0-0--||
A||----x-2--||
E||----2-3--|| (x2)

[ Tab from: http://www.guitartabs.cc/tabs/f/foo_fighters/miracle_tab.html ]
Verse
e||--2-0-3--2-0-3--0-0-0--||
B||--3-3-3--3-3-3--3-3-0--||
G||--2-2-0--2-2-0--2-2-1--||
D||--0-0-0--0-0-0--x-2-2--||
A||----x-2----x-2--2---2--||
E||----2-3----2-3------0--|| (x2)


Chorus
e||--2-3-2--2-3-2--2-3-0--||
B||--2-3-3--2-3-3--2-3-0--||
G||--2-4-2--2-4-2--2-4-1--||
D||--4-5-0--4-5-0--4-5-2--||
A||--4-5----4-5----4-5-2--||
E||--2-3----2-3----2-3-0--||
Comments