Foo Fighters - Low Chords & Tabs

 

Low Chords & Tabs

Foo Fighters Chords & Tabs

Version: 4 Type: Tab 0 ratings
1 star 2 stars 3 stars 4 stars 5 stars
comments

Low Tab

   
Foo Fighters - Low

From there new album "One By One"

Tuning Drop-D (D A D G B E)

Intro/Verse X 6

E -----------------------------------------------------
B -----------------------------------------------------
G --------------------------15-15-15-15---17-17-17-17--
D ---------------------------x--x--x--x----x--x--x--x--
A --------------------------13-13-13-13---15-15-15-15--
D --5-5-5-5-5-5-5-5-5-5--------------------------------


E -----------------------------------------------------
B -----------------------------------------------------
G --------------------------15-15-15-15---11-11-11-11--
D ---------------------------x--x--x--x----x--x--x--x--
A --------------------------13-13-13-13----9--9--9--9--
D --4-4-4-4-4-4-4-4-4-4--------------------------------


I have not put the exact amount of strums, listen to
the record to get the exact timing on strumming.


Bridge X 2
E --------------------------------------------------------------------------------------------------
B --------------------------------------------------------------------------------------------------
G --------------------------------------------------------------------------------------------------
D --------------------------------------------------------------------------------------------------
A --------------------------------------------------------------------------------------------------
D --5-5-5-5-5-5-5-5-5-5---4-4-4-4-4-4-4-4-4---8-8-8-8-8-8-8-8-8-8-8-8---2-2-2-2-2-2-2-2-2-2-2-2-2-2-

"You'll be my passer by, I'll be your one to pass through......"


Fill (end of the 1st bridge)

A ------3---          *Play after the first bridge only
D --0-2-----
 

Intro/Verse X 5

Bridge X 2


Chorus  X 4
[ Tab from: http://www.guitartabs.cc/tabs/f/foo_fighters/low_tab_ver_4.html ]
E --------------------------------------------------------
B --------------------------------------------------------
G ----------------5--5--5-(5)(5)(5)(5)(5)-----------------
D --1--1--1-------5--5--5-(5)(5)(5)(5)(5)-----------------
A --1--1--1-------3--3--3-(3)(3)(3)(3)(3)-----------------
D --1--1--1-----------------------------------------------

"Taking it as low as you go.."


Intro/Verse X 2

Bridge X 2 


Chorus  X 4

E --------------------------------------------------------
B --------------------------------------------------------
G ----------------5--5--5-(5)(5)(5)(5)(5)-----------------
D --1--1--1-------5--5--5-(5)(5)(5)(5)(5)-----------------
A --1--1--1-------3--3--3-(3)(3)(3)(3)(3)-----------------
D --1--1--1-----------------------------------------------


Solo X 2 
Lead Guitar X 2

E ---------------------------------------------------
B ---------------------------------------------------
G --12-----14-----15-----14-----17-----15-----14-----
D ---x------x------x------x------x------x------x-----
A --10-----12-----13-----12-----15-----13-----12-----
D ---------------------------------------------------
  X 12    X 4   X 12    X 8    X 4    X 2    X 2 

2nd Guitar X 2 (Played in the background of the octaves)

E ----------------------------------------------------------
B ----------------------------------------------------------
G ----------------------------------------------------------
D ----------------------------------------------------------
A -----------------------------------------------------3----
D --5-5-5-5---4-4-4-4-4---3-3-3-3-3---2-2-2-2-2----0-2------


Fill X 3

E ------------------------------------
B ------------------------------------
G ------------------------------------
D ------------------------------------
A ------------------------------------
D --5-5-5-5-5-5-5-5-5----------------- 


Chorus X 8



Outro X 8

E ------------------------------------
B ------------------------------------
G -------------------------*5---------
D -------------------------*5---------
A ------------------------------------
D --5-5-5-5-5-5-5-5-5-5---------------


Key

( ) = Play only one time through
 *  = Natural Harmonic
 x  = Mute

Tabbed by James Graham 

If any one has any corrections then e-mail on 
guitardude17_uk@yahoo.co.uk
Comments