Foo Fighters - Low Chords & Tabs

 

Low Chords & Tabs

Foo Fighters Chords & Tabs

Version: 3 Type: Tab 0 ratings
1 star 2 stars 3 stars 4 stars 5 stars
comments

Low Tab

   
Foo Fighters - Low
From the Album 'One By One'
Tabbed by Sean Duncan

seanduncan50@hotmail.com
visit my site: http://killerjunkies.bravepages.com

this is my very first tab so it will have some errors, contact me if 
you wish and bare in mind this was made before the 
release of the 4th foos album :)

Effects: 

distortion throughout, with a bit of phaser / flanger 
in some parts, but distortion will be enough.


INTRO / VERSE (w/ distortion)

Riff 1 (play every odd time)

Strum (x10 approx)

e---
b---
g---
d-5-
a-5-
e-3-  lead guitar just play the G note on the e string

Then Chris plays this riff:

e----------------------------------
b---11-11-11-11---------13-13-13-13
g--------------slide to------------
d---8--8--8--8----------10-10-10-10
a----------------------------------
e----------------------------------

Then

Riff 2 (play every 2nd time)

Strum (x10 approx)

e---
b---
g---
d-4-
a-4-
e-2- lead guitar just play the F# note on the e string

Then Chris plays this riff:

e----------------------------------
b---11-11-11-11---------7-7-7-7----
g--------------slide to------------
d---8--8--8--8----------4-4-4-4----
a----------------------------------
e----------------------------------


BRIDGE:

i think chris plays the notes and dave plays the barre chords, but if you
are playing alone its best to just play the notes.

('you'll be my, passer' by part)

Dave plays:        Chris plays:
[ Tab from: http://www.guitartabs.cc/tabs/f/foo_fighters/low_tab_ver_3.html ]
  G5 F#5 A#5 E5      G5 F#5 A#5 E5
e--------------    e--------------
b--------------    b--------------
g--------------    g--------------
d-5--4---8---2-    d------------9-
a------------2-    a------------7-
e-3--2---6---0-    e-3--2---6---0-

tremelo these notes (play rapidly!!)

fill at around 1.55 and 2.48 into the song 
(in not sure this is right, its not vital)

e------------------
b------------------
g------------------
d------------------
a-----2------------
e-0-3--------------

CHORUS:

as low as you go...

e--------------------
b--------------------
g-8-------5----------
d-8-------5----------
a-6-------3----------
e--------------------

  D#5     C5

play open then mute with your fretting hand (ad lib!)


BREAKDOWN / END 

(guitar on its own before last chorus and at the end)

strum G on the low e string, backed up with guitar with phaser / flanger


SOLO!!!
 
(tremelo each note) repeat twice

e------------------------------------------------------
b----8---10--11--10--6---13---11--10-------------------
g------------------------------------------------------
d----5---7---8---7---3---10---8---7--------------------
a------------------------------------------------------
e------------------------------------------------------

you can work out the rhythm, its pretty straight forward


SONG ORDER:

Intro      (x2)
Verse      (x4)
Bridge     (x2)
Intro      (x1)
Verse      (x4)
Bridge     (x2) w/ fill 1st time
Chorus     (x4)
Intro      (x2)
Bridge     (x2) w/ fill 1st time
Chorus     (x4)
Solo       (x2)
Breakdown  (x4)
Chorus     (x8)
Breakdown  (x8)
Comments