Foo Fighters - Lonely As You Chords & Tabs

 

Lonely As You Chords & Tabs

Foo Fighters Chords & Tabs

Version: 1 Type: Bass Tab 0 ratings
1 star 2 stars 3 stars 4 stars 5 stars
comments

Lonely As You Bass Tab

Song: Lonely As you
Artist: Foo Fighters
Album: One by One
Tabbed By: Jason Lapointe (jizmogg@yahoo.ca)

Intro - Dave and guitar only

Verse (play twice)
G|-----------------------------------------------------------|
D|-----------------------------------------------------------|
A|-------1(x8)-----------------------------------------------|
D|-4(x8)-------2(x8)-1(x8)-0-0-0-0-0-2-2-2-4(x8)-6(x8)-5(x8)-|

Verse cont.
G|------------------------------------------------------|
D|------------------------------------------------------|
A|-------1(x8)-----------------------------------2(x16)-|
D|-4(x8)-------2(x8)-1(x8)-0-0-0-0-0-2-2-2-4(x8)--------|
                          ^pre-chorus starts on 2nd run through
Pre-Chorus
G|------------------------|-------------------------|
D|------------------------|-------------------------|
A|------------------------|-2(x8)-0(x8)-------------|
D|-0--0-0--2--2-4-4-4-4-4-|-------------6(x8)-5(x8)-|
  ^ play 3 times, then -----^

Chorus (play 4 times)
G|---------------------------------------------------------|
D|-------------------------------------------2-2-2---------|
A|-------------------------------5-5-5-0-0-0-------2-2-2---|
D|-4-4-4-3-3-3-2-2-2-1-1-1-0-----------------------------4-|
[ Tab from: http://www.guitartabs.cc/tabs/f/foo_fighters/lonely_as_you_btab.html ]
*play all above once again, except this time play verse 1 1/2 times
 then go into pre-chorus etc. Once that's done, then...

Verse 2 (play 3 times, check notes)
G|------------------------------------------------------------------------|
D|---------------------------2--2-2h4-2--2-1-1--1-1--0--0-0--2--4-4-4-4-4-|
A|-------------1--1-1--1-1--1---------------------------------------------|
D|-4--4-4-2h4-4-----------------------------------------------------------|
                                                     ^3rd time is prechorus
                                                      starts here
Verse 2 cont. (1st and 2nd time)
G|-------------4-------------------|-4(x16)-|
D|-6-6-6-6-6-6---6-5-5-5-5-2-2-2-2-|--------|
A|---------------------------------|--------|
D|---------------------------------|--------|
  *after verse2, play ^ first time, ^ second time, then 3rd time...

Verse 2 cont. (3rd time)
G|------------------------|-------------------------|
D|-0--0-0--2--2-4-4-4-4-4-|-9(x8)-7(x8)-6(x8)-5(x8)-|
A|------------------------|-------------------------|
D|------------------------|-------------------------|
  ^ play 3 times, then -----^

Then Chorus 8 times

Hope it makes sense, listen to the track to get familiar, it shouldn't
be hard (hopefully) to piece it together. I just hate printing out a 
hundred pages with the same crap over and over, so tried to keep it
condensed with just the pertinent info. Have fun!
Comments