Foo Fighters - Live In Skin Chords & Tabs

 

Live In Skin Chords & Tabs

Foo Fighters Chords & Tabs

Version: 1 Type: Tab 0 ratings
1 star 2 stars 3 stars 4 stars 5 stars
comments

Live In Skin Tab

Tuning: DADGBe


Intro and verse:

-----------------------------------------------------|
---3--3--3-------------------------------------------|
---2--2--2-------------------------------------------|
---0--0--0-------------------------------------------|
---------0------------5-----5---2-2--0-0--2-2----4-5-|
-----------------0-5----0-4---0-2-2--0-0--2-2--0-----|

Play that over hoe ever many times is needed. Just listen to the record!

Chorus:

-------------------------------------------------------------------|
-------------------------------------------------------------------|
-------------------------------------------------------------------|
------------------6-6-6-6-6-6-6-6-----------------0-0-0-0-0-0-0-0--|
---0-0-0-0-0-0-0--4-4-4-4-4-4-4-4--0-0-0-0-0-0-0--2-2-2-2-2-2-2-2--|
---0-0-0-0-0-0-0-------------------0-0-0-0-0-0-0-------------------|
[ Tab from: http://www.guitartabs.cc/tabs/f/foo_fighters/live_in_skin_tab.html ]
-------------------------------------------------------------------|
-------------------------------------------------------------------|
-------------------------------------------------------------------|
------------------0-0-0-0-0-0-0-0--6-6-6-6-6-6-6-6-----------------|
---0-0-0-0-0-0-0--1-1-1-1-1-1-1-1--4-4-4-4-4-4-4-4-5-5-5-5-5-5-5-5-|
---0-0-0-0-0-0-0-----------------------------------5-5-5-5-5-5-5-5-|

This is played once the first time and twice the second time. Then it goes back into the 
Theres another part where he sings "Turn your inside out to the outside" and that goes:

----------------------------------------------------------------------|
----------------------------------------------------------------------|
----------------------------------------------------------------------|
---6-6-6-6-6-6-6-6--3-3-3-3-3-3-3-3--6-6-6-6-6-6-6-6--3-3-3-3-3-3-3-3-|
---4-4-4-4-4-4-4-4--1-1-1-1-1-1-1-1--4-4-4-4-4-4-4-4--1-1-1-1-1-1-1-1-|
----------------------------------------------------------------------|


---------------------------------------------------------------------|
---------------------------------------------------------------------|
---------------------------------------------------------------------|
---6-6-6-6-6-6-6-6--3-3-3-3-3-3-3--5-5-5-5-5-5-5---------------------|
---4-4-4-4-4-4-4-4--1-1-1-1-1-1-1--3-3-3-3-3-3-3--5-5-5-5-5-5-5------|
--------------------------------------------------5-5-5-5-5-5-5------|

That is played twice. here is some variation but work it out for yourselves, too much 
for so little. hope you enjoy it.
Comments