Foo Fighters - Live In Skin Chords & Tabs

 

Live In Skin Chords & Tabs

Foo Fighters Chords & Tabs

Version: 1 Type: Bass Tab 0 ratings
1 star 2 stars 3 stars 4 stars 5 stars
comments

Live In Skin Bass Tab

Album: There's Nothing Left To Lose
Song Title: Live In Skin
Track: 7
Artist: Foo Fighters
Tabber: Bambi

(Drop D tuning)


Main riff
g|-----------------------------------|
d|-----------------------------------|
a|------5-----5-----5-----------4-5--|
d|--0-5---0-4---0-2---0-0-2-0-0------|

This is where the Bass guitar strays away from the guitar in the verse
g|----------------------------------|
d|----------------------------------|
a|------5-----5--5-7-5-4-5-----4-5--|
D|--0-5---0-4--------------0-0------|


Chorus
g|-----------------------------|
d|-----0---/4-2-0--------------|
a|---0---0---------3-3-3-3-3-3-|
D|-0---------------------------|
[ Tab from: http://www.guitartabs.cc/tabs/f/foo_fighters/live_in_skin_btab.html ]
g|-----------------------------|
d|-----------------------------|
a|-----5-----------------------|
D|-0-4---0-4-5-7-9-9-9-9-9-9-9-|

g|----------------------------------------------------------------------|
d|----------------------------------------------------------------------|
a|-----5---------1-1-1-1-1-1-1-1-1-2-3-3-3-3-3-3-2-0--------------------|
D|-0-4---0-2-4-5--------------------------------------5-5-5-5-5-5-5-5-5-|


Bridge
g|----------------------------|------------------------------|
d|----------------------------|------------------------------|
a|--5---------5---1-3-5-3-3-3-|-3-3-3-3-3-3-3----------------|
D|----0-2-4-5-----------------|---------------5-5-5-5-5-5-5--|
 (3x)
Comments