Foo Fighters - Learn To Fly Chords & Tabs

 

Learn To Fly Chords & Tabs

Foo Fighters Chords & Tabs

Version: 9 Type: Tab 0 ratings
1 star 2 stars 3 stars 4 stars 5 stars
comments

Learn To Fly Tab

   
  This is another great song by the foo fighters and another great video to go
with it. This tab is pretty much spot on I've made some corrections on the last
few tabs of this song and perfected the song. It's standard tuning which is good
because I can't be pissed to keep down tuning my guitar.
 
  
  Intro (lead) b= half bend

  Riff A
e|---------------------------------------------------------------------------|
B|---------------------------------------------------------------------------|
G|------4--4-4---4-4-4--4/6-6-6--6b-6-6\4--4-4--4-4-4-(4)--4-4-4--4----------|
D|------x--x-x---x-x-x--x/x-x-x--x--x-x\x--x-x--x-x-x-(x)--x-x-x--x--0-------|
A|------2--2-2---2-2-2--2/4-4-4--4b-4-4\2--2-2--2-2-2-(2)--2-2-2--2--0-------|
E|-15/-----------------------------------------------------------------------|

  Riff B

e|--------------------------------------------------0---0---0-0-0------------|
B|--------------------------------------------------0-0-0---0-0-0------------|
G|------4--4-4---4-4-4--4/6-6-6--6b-6-6\4-4-0-4---------4---4-4-4-4----------|
D|------x--x-x---x-x-x--x/x-x-x--x--x-x\x-x---x-----2---2---2-2-2-x----------|
A|------2--2-2---2-2-2--2/4-4-4--4b-4-4\2-2---2-0-----------------2----------|
E|-15/--------------------------------------------4--------------------------|

  Intro ( second guitar )
  
  Riff A
e|-0-0--0--0-0---------0--0---0------0--0----0--(0)-0-0-0--------------------|
B|-0-0--0--0-0---------0--0---0------0--0----0--(0)-0-0-0--------------------|
G|-4-4--4--4-4-------2---------------4--4----4--(4)-4-4-4--------------------|
D|-4-4--4--4-4-----------------------2--2----2--(2)-2-2-2--------------------|
A|-2-2--2--2-2---4---------------2-2-------2---------------------------------|
E|-------------2------------2----0-0-------0---------------------------------|

  Riff B
e|-0-0--0--0-0---------0--0---0------0--0----0--0---0--0-0-0-----------------|
B|-0-0--0--0-0---------0--0---0------0--0----0--0---0--0-0-0-----------------|
G|-4-4--4--4-4-------2---------------4--4----4--4---4--4-4-4-----------------|
D|-4-4--4--4-4-----------------------2--2----2--2---2--2-2-2-----------------|
A|-2-2--2--2-2---4---------------2-2-------2------2--------------------------|
E|-------------2------------2----0-0-------0------0--------------------------|

   Verse ( Just second guitarist [Nate mendal] does this)
e|--------2---------0---0----------0-----------------------------------------|
B|---2----2-----0---0---0----------0-----------------------------------------|
G|-----4--------2-------4------4---------------------------------------------|
D|----------------4---2----------2-------------------------------------------|
A|-2------------------2------------------------------------------------------|
E|------------2-------0------0-----------------------------------------------|
[ Tab from: http://www.guitartabs.cc/tabs/f/foo_fighters/learn_to_fly_tab_ver_9.html ]
  Bit before Chorus ( second guitarist [lead just plays b fairly muted) 
e|-------0--0---0--0---0-----------------------------------------------------|
B|-------0--0---0--0---0-----------------------------------------------------|
G|-------4--4---4--4---4-----------------------------------------------------|
D|-------2--2---2--2---2-----------------------------------------------------|
A|-2-2-2------2------2---0-0-------------------------------------------------|
E|-0-0-0------0------0---0-0-------------------------------------------------|

  Chorus ( lead )
e|---------------------------------------------------------------------------|
B|---------------------------------------------------------------------------|
G|-4------2------------------------------------------------------------------|
D|-4-etc--4-etc--2-----------------------------------------------------------|
A|-2------4------2-etc-------------------------------------------------------|
E|---------------0-----------------------------------------------------------|

  Chorus ( second guitarist [I'm not sure which guitar is lead at this point
because it changes a lot] )
e|------0-0---0--------0-0---0--------0--0---0--0---0--0-0-------------------|
B|------0-0---0----0---0-0---0--------0--0---0--0---0--0-0-------------------|
G|-4--4-----4----2---2-----2----------4--4---4--4---4--4-4-2-----------------|
D|-4--4-----4----4---------4----------2--2---2--2---2--2-2-2-----------------|
A|-2--2-----2----4---------4----2-2-2------2------2--------------------------|
E|------------------------------0-0-0------0------0--------------------------|

  "Make my way back home and I learn to fly" bit

 Other Guitar:        G                A
e|-(0)-0----0---------3--3-3-3-3-3-3-----------------------------------------|
B|-(0)-0----0------0--3--3-3-3-3-3-3---3--2-2--x-----------------------------|
G|-(4)-4----4--2-4----0--0-0-0-0-0-0---2--2-2--x-----------------------------|
D|-(2)-2----2---------0--0-0-0-0-0-0---2--2-2--x-2---------------------------|
A|-------2------------2--2-2-2-2-2-2---0--0-0--x-0---------------------------|
E|-------0------------3--3-3-3-3-3-3-----------------------------------------|

  Interlude: "Fly along with me" bit (lead)
  
e|--------4--5-4--2-2---2--0-2-0-2-0------------4--5-4--2-2------------------|
B|----5---5------------------------------5------5----------------------------|
G|-/6---6-----------------------------/6---6--6------------------------------|
D|---------------------------------------------------------------------------|
A|---------------------------------------------------------------------------|
E|---------------------------------------------------------------------------|

  Chords Played in Interlude.
e|---------------------------------------------------------------------------|
B|---------------------------------------------------------------------------|
G|-4-----------7-------------------------------------------------------------|
D|-4-etc-5-----7-etc--2------5-----7-----------------------------------------|
A|-2-----5-etc-5------2--etc-5-etc-7-etc-------------------------------------|
E|-------3------------0------3-----5-----------------------------------------|

  end with
e|-------0-------------------------------------------------------------------|
B|---------0---4-2-----------------------------------------------------------|
G|---4-------4-4-4-----------------------------------------------------------|
D|-----4-----4-2-4-----------------------------------------------------------|
A|-2---------2---------------------------------------------------------------|
E|---------------------------------------------------------------------------|

Thanx I may of made some some mistakes so please correct me if you wish.

| /  slide up
| \  slide down
| x  Mute note
===============================================================================
Comments