Foo Fighters - Learn To Fly Chords & Tabs

 

Learn To Fly Chords & Tabs

Foo Fighters Chords & Tabs

Version: 5 Type: Tab 0 ratings
1 star 2 stars 3 stars 4 stars 5 stars
comments

Learn To Fly Tab

   
#----------------------------------PLEASE NOTE---------------------------------#
#This file is the author's own work and represents their interpretation of the #
#song. You may only use this file for private study, scholarship, or research. #
#------------------------------------------------------------------------------#

Tabber: Uunknown
This is the first single off of the Foo Fighters’ new album. It’s a really easy song once you get the hang of it. I’ve given all the chords and such and told you how many times to play them but listen to the song to figure out the rhythm. And last of all, Foo Fighters ROCK!!

If you have any questions or problems with this song e-mail me at   HYPERLINK "mailto:ibanez_rg320@yahoo.com" ibanez_rg320@yahoo.com

\=slide down
/=slide up
~ =bend ½ 

Standard Tuning
                       
           Riff A
E----------------------------------------------------------------------------------------------------------
B----------------------------------------------------------------------------------------------------------
G----------------4----4----4----4----4----4----6----6----6----6----6 ~ --6------4----4----4----4--
D----------------x----x----x----x----x----x----x----x----x----x----x ~ --x------x----x----x----x--
A----------------2----2----2----2----2----2----4----4----4----4----4 ~ --4------2----2----2----2--
E—14\---------------------------------------------------------------------------------------------------

                    End    Verse (4x)                        End                    
E------------------------------------   ---------------   --------0----------0-----------0---------0--
B------------------------------------   ---------------   --------0----------0-----------0---------0--
G-----4----4----4----4----4----4--   ---------------   --------4----------4-----------4---------4--
D-----x----x----x----x----x----x--   --Riff A      -    ---4-----------------------------------------
A-----2----2----2----2----2----2--   ---------------    ---2---------4----------2----------2--------
E-------------------------------------   ---------------   -------------2----------0-----------0-------

Chorus (3x)
E----------------------------------------------------------------------------------------------------------
B----------------------------------------------------------------------------------------------------------
G----4----4----4----4----4----4------------------------------------------------------------------------
D----4----4----4----4----4----4------4----4----4----4----4----4------2----2----2----2----2----2--
A----2----2----2----2----2----2------4----4----4----4----4----4------2----2----2----2----2----2--
E----------------------------------------2----2----2----2----2----2------0----0----0----0----0----0

E-----------------------    --------------------------------------------------------------------------------
B-----------------------    --------------------------------------------------------------------------------
G-----------------------    -------------------------------------------------------------------------------
D----2----2----2------    ----5----5----5----5----5----5----5----5------7----7----7----7----7----7-
A----2----2----2------    ----5----5----5----5----5----5----5----5------7----7----7----7----7----7-
E-----0----0----0------    ---3----3----3----3----3----3----3----3------5----5----5----5----5----5-
[ Tab from: http://www.guitartabs.cc/tabs/f/foo_fighters/learn_to_fly_tab_ver_5.html ]
E---------------   ---------------    ---------------   ----------------   ---------------------------------
B---------------   ---------------    ---------------   ----------------   ---------------------------------
G---------------   ---------------    ---------------   ----------------   ---------------------------------
D----7----7----   --- Riff A ---    --- Verse ---   --- Chorus ---   -5----5----5----5----5----5---
A----7----7----   ---------------    ---------------   ----------------   -5----5----5----5----5----5---
E----5----5----    ---------------    --------------   -----------------   -3----3----3----3----3----3---

    Bridge (2x)
E-------------------------------------------------------------    ----------------------------------------
B-------------------------------------------------------------    ----------------------------------------
G-------------------------------------------------------------    --4----4----4----4----4--------------
D----5----5------7----7----7----7----7----7----7----7----    --4----4----4----4----4----5----5---
A----5----5------7----7----7----7----7----7----7----7----    --2----2----2----2----2----5----5---
E----3----3------5----5----5----5----5----5----5----5----    ------------------------------3----3---

E------------------------------------------------------------------------------------------------------
B------------------------------------------------------------------------------------------------------
G--------------------7----7----7----7----7----------------------------------------------------------
D---5----5----5----7----7----7----7----7----2----2----2----2----2----5----5----5----5----5----
A---5----5----5----5----5----5----5----5----2----2----2----2----2----5----5----5----5----5----
E---3----3----3--------------------------------0----0----0----0----0----3----3----3----3----3----

(2x)
E-------------------------------    --------------    ----------------------------------------------
B-------------------------------    --------------    ----------------------------------------------
G-------------------------------    --------------    ----------------------------------------------
D---7----7----7----7----7----    -- Chorus --     --2----2----2----2----2----2----2----2----
A---7----7----7----7----7----    --------------     --2----2----2----2----2----2----2----2----
E---5----5----5----5----5----    ---------------    --0----0----0----0----0----0----0----0----

E---------------------------------------------------------------------------------------------------------
B---------------------------------------------------------------------------------------------------------
G---------------------------------------------------------------------------------------------------------
D---5----5----5----5----5----5----5----5----7----7----7----7----7----7----7----7----2----2----2--
A---5----5----5----5----5----5----5----5----7----7----7----7----7----7----7----7----2----2----2--
E---3----3----3----3----3----3----3----3----5----5----5----5----5----5----5----5----0----0----0--

E-----------------------------------------------------------------------------------------------------
B-----------------------------------------------------------------------------------------------------
G-----------------------------------------------------------------------------------------------------
D---2----2----2----2----2----5----5----5----5----5----5----5----5----7----7----7----7----7---
A---2----2----2----2----2----5----5----5----5----5----5----5----5----7----7----7----7----7---
E---0----0----0----0----0----3----3----3----3----3----3----3----3----5----5----5----5----5---

          (4x)               Outro
E------------------    --------------   ---------------
B------------------    -------------   --------4-------
G------------------    ------4------   --4----4----6---
D---7----7----7----    ----------4--   --4----2----4---
A---7----7----7----    --2----------   --2-------------
E---5----5----5----    --------------  ----------------

ibanez_rg320@yahoo.com
Comments