Foo Fighters - Learn To Fly Chords & Tabs

 

Learn To Fly Chords & Tabs

Foo Fighters Chords & Tabs

Version: 3 Type: Bass Tab 0 ratings
1 star 2 stars 3 stars 4 stars 5 stars
comments

Learn To Fly Bass Tab

   
Standard Tuning--If you have  N E questions or comments just email me at 
socialydisordrd@aol.com. 

*=let it ring


Intro:

G|-------------------------------------------------------------------|
D|-------------------------------------------------------------------|
A|2-22-2222-----------------------2-22-2222--------------------------|
E|----------2-22-2222---0-00-0000-----------2-22-2222-0-00-000000000-|

Verse:

G|------------------------------------------------------------|
D|------------------------------------------------------------|
A|---2*-------------------------------------------------------|3X's
E|-------------2*---------0*----------------------------------|

Then the last part of the verse (4th time) is played like this:

G|--------------------------------------------|
D|--------------------------------------------|
A|--2*----------------------------------------|
E|-------2*------0*-----00000000000-----------|

Chorus:

G|----------------------------------------------------------------|
D|----------------------------------------------------------------|
A|2-22-2222--------------------2-22-2222--------------------------|
E|---------2-22-2222-0-00-0000----------2-22-2222-0-00-000000000--|

G|---------------------------------------------------|
D|---------------------------------------------------|
A|2-22-2222------------------------------------------|
E|----------2-22-2222-0-00-000-0000------------------|

Fill #1:
[ Tab from: http://www.guitartabs.cc/tabs/f/foo_fighters/learn_to_fly_btab_ver_3.html ]
G|------------------------------------------------------|
D|------------------------------------------------------|
A|----10-10-10-10-10-10-10-10-12-12-12-12-12-12-12-12---|
E|------------------------------------------------------|

Fill #2

G|---------------------------------------------------------|
D|---------------------------------------------------------|
A|10-10-10-10-10-10-10-10-12-12-12-12-12-12-12-12-777777-9-|
E|---------------------------------------------------------|

G|------------------------------------------------|
D|------------------------------------------------|
A|10-10-10-10-10-10-10-10-12-12-12-12-12-12-12-12-|
E|------------------------------------------------|

Bridge:

G|-------------------------------------------------------------|
D|-------------------------------------------------------------|
A|2-22-2222---------5-55-5555----------------------------------|
E|---------3-33-3333---------0000223333333355555555------------|

G|-------------------------------------------------------------|
D|-------------------------------------------------------------|
A|-------------------------------------------------------------|
E|---------3-33-3333---5---3-0--0000223333333355555555---------|


Ending:

G|--------------------------------------------------|
D|-------------------------2--4---------------------|
A|--2*-------------------2--------------------------|
E|--------------------------------------------------|

Okay so the order is:

Intro
Verse
Chorus
Fill #1
Intro
Verse
Chorus
Fill #2 
Bridge
Chorus
Fill #1
Chorus
Fill #2
Fill #2
Ending
Comments