Foo Fighters - Last Song Chords & Tabs

 

Last Song Chords & Tabs

Foo Fighters Chords & Tabs

Version: 2 Type: Tab 0 ratings
1 star 2 stars 3 stars 4 stars 5 stars
comments

Last Song Tab

Song: The Last Song
Artist: Foo Fighters
Album: In Your Honor
Genre: Rock

Intro
Guitar 1 (Carrys on playin through the verse)
e|--2-2-2-2-2-2-2-2-2-2-2-2-2-2-2-2-2-2--| 
B|--2-2-2-2-2-2-2-2-2-2-2-2-2-2-2-2-2-2--|
G|--4-4-4-4-4-4-4-4-4-4-4-4-4-4-4-4-4-4--|
D|--4-4-4-4-4-2-4-4-4-4-4-4-4-4-4-4-4-4--| x2
A|--2-2-2-2-2-2-2-2-2-2-2-2-2-2-2-2-2-2--|
E|---------------------------------------|

Verse
Guitar 2
e|--2-2-2-0-0-0-------0-0-0--------|  
B|--2-2-2-0-0-0-------0-0-0--------|
G|--4-4-4-2-2-2-6-6-6-2-2-2--------|
D|--4-4-4-2-2-2-6-6-6-2-2-2-2-2-2--| x9
A|--2-2-2-------4-4-4-------2-2-2--|
E|--------------------------0-0-0--|

Pre Chorus
Guitar 1
e|--2---2---2---2---2--|
B|--2---2---2---2---2--|
G|--4---4---4---4---4--|  
D|--4---4---4---4---4--| x2
A|--2---2---2---2---2--|
E|---------------------|

Guitar 2
e|--2---0-------0------|
B|--2---0-------0------|
G|--4---2---6---2------|  
D|--4---2---6---2---2--| x2     
A|--2-------4-------2--|
E|------------------0--|

Chorus
Guitar 1
e|--2-2-2-2-2-2-2-2-----------------0-0-0-0-0-0-0-0------------------|
B|--2-2-2-2-2-2-2-2-----------------0-0-0-0-0-0-0-0------------------|
G|--4-4-4-4-4-4-4-4-----------------2-2-2-2-2-2-2-2------------------|  
D|--4-4-4-4-4-4-4-4-2-2-2-2-2-2-2-2-2-2-2-2-2-2-2-2-2-2-2-2-2-2-2-2--| x2
A|--2-2-2-2-2-2-2-2-2-2-2-2-2-2-2-2-----------------2-2-2-2-2-2-2-2--|
E|------------------0-0-0-0-0-0-0-0-----------------0-0-0-0-0-0-0-0--|

Guitar 2
e|--2-2-2-2-2-2-2-2-7-7-7-7-7-7-7-7-5-5-5-5-5-5-5-5-4-4-4-4-4-4-4-4--|
B|--2-2-2-2-2-2-2-2-7-7-7-7-7-7-7-7-5-5-5-5-5-5-5-5-4-4-4-4-4-4-4-4--|
G|--4-4-4-4-4-4-4-4-9-9-9-9-9-9-9-9-7-7-7-7-7-7-7-7-6-6-6-6-6-6-6-6--|   
D|--4-4-4-4-4-4-4-4-9-9-9-9-9-9-9-9-7-7-7-7-7-7-7-7-6-6-6-6-6-6-6-6--| x2
A|--2-2-2-2-2-2-2-2-7-7-7-7-7-7-7-7-5-5-5-5-5-5-5-5-4-4-4-4-4-4-4-4--|
E|-------------------------------------------------------------------|

Verse
Guitar 2
e|--2-2-2-0-0-0-------0-0-0--------|  
B|--2-2-2-0-0-0-------0-0-0--------|
G|--4-4-4-2-2-2-6-6-6-2-2-2--------|
D|--4-4-4-2-2-2-6-6-6-2-2-2-2-2-2--| x9
A|--2-2-2-------4-4-4-------2-2-2--|
E|--------------------------0-0-0--|

Pre Chorus
Guitar 1
e|--2---2---2---2---2--|
B|--2---2---2---2---2--|
G|--4---4---4---4---4--|  
D|--4---4---4---4---4--| x2
A|--2---2---2---2---2--|
E|---------------------|

Guitar 2
e|--2---0-------0------|
B|--2---0-------0------|
G|--4---2---6---2------|  
D|--4---2---6---2---2--| x2     
A|--2-------4-------2--|
E|------------------0--|

Chorus
Guitar 1
e|--2-2-2-2-2-2-2-2-----------------0-0-0-0-0-0-0-0------------------|
B|--2-2-2-2-2-2-2-2-----------------0-0-0-0-0-0-0-0------------------|
G|--4-4-4-4-4-4-4-4-----------------2-2-2-2-2-2-2-2------------------|  
D|--4-4-4-4-4-4-4-4-2-2-2-2-2-2-2-2-2-2-2-2-2-2-2-2-2-2-2-2-2-2-2-2--| x2
A|--2-2-2-2-2-2-2-2-2-2-2-2-2-2-2-2-----------------2-2-2-2-2-2-2-2--|
E|------------------0-0-0-0-0-0-0-0-----------------0-0-0-0-0-0-0-0--|

Guitar 2
e|--2-2-2-2-2-2-2-2-7-7-7-7-7-7-7-7-5-5-5-5-5-5-5-5-4-4-4-4-4-4-4-4--|
B|--2-2-2-2-2-2-2-2-7-7-7-7-7-7-7-7-5-5-5-5-5-5-5-5-4-4-4-4-4-4-4-4--|
G|--4-4-4-4-4-4-4-4-9-9-9-9-9-9-9-9-7-7-7-7-7-7-7-7-6-6-6-6-6-6-6-6--|   
D|--4-4-4-4-4-4-4-4-9-9-9-9-9-9-9-9-7-7-7-7-7-7-7-7-6-6-6-6-6-6-6-6--| x4
A|--2-2-2-2-2-2-2-2-7-7-7-7-7-7-7-7-5-5-5-5-5-5-5-5-4-4-4-4-4-4-4-4--|
E|-------------------------------------------------------------------|
[ Tab from: http://www.guitartabs.cc/tabs/f/foo_fighters/last_song_tab_ver_2.html ]
Bridge x2
Guitar 1
e|--2-2-2-2-2-2-2-2-2-2-2-2-2-2-2-2-4-4-4-4-4-4-4-4-4-4-4-4-4-4-4-4--|
B|--2-2-2-2-2-2-2-2-2-2-2-2-2-2-2-2-4-4-4-4-4-4-4-4-4-4-4-4-4-4-4-4--|
G|--4-4-4-4-4-4-4-4-4-4-4-4-4-4-4-4-6-6-6-6-6-6-6-6-6-6-6-6-6-6-6-6--|
D|--4-4-4-4-4-4-4-4-4-4-4-4-4-4-4-4-6-6-6-6-6-6-6-6-6-6-6-6-6-6-6-6--|
A|--2-2-2-2-2-2-2-2-2-2-2-2-2-2-2-2-4-4-4-4-4-4-4-4-4-4-4-4-4-4-4-4--|
E|-------------------------------------------------------------------|
                                                                        
e|--0-0-0-0-0-0-0-0-0-0-0-0-0-0-0-0----------------------------------|
B|--0-0-0-0-0-0-0-0-0-0-0-0-0-0-0-0----------------------------------|
G|--2-2-2-2-2-2-2-2-2-2-2-2-2-2-2-2----------------------------------|
D|--2-2-2-2-2-2-2-2-2-2-2-2-2-2-2-2-2-2-2-2-2-2-2-2-2-2-2-2-2-2-2-2--|
A|----------------------------------2-2-2-2-2-2-2-2-2-2-2-2-2-2-2-2--|
E|----------------------------------0-0-0-0-0-0-0-0-0-0-0-0-0-0-0-0--|

Guitar 2
e|---------------| |---------------| |---------------| |---------------|
B|---------------| |---------------| |---------------| |---------------|
G|--8------------| |--8------------| |--8-------6----| |--8-------6----|
D|----9-7--------| |----9-7--------| |----9-7--------| |----9-7--------|
A|--------9-7----| |--------9-7----| |--------9------| |--------9------|
E|------------7--| |------------9--| |------------9--| |------------9--|

e|---------------| |---------------| |---------------| |---------------|
B|---------------| |---------------| |---------------| |---------------|
G|--8------------| |--8------------| |--8------------| |--8------------|
D|----9-7--------| |----9-7--------| |----9-7--------| |----9-7--------|
A|--------9-7----| |--------9-7----| |--------9-7----| |--------9-7----|
E|------------7--| |------------7--| |------------7--| |------------7--|

Verse
Guitar 2
e|--2-2-2-0-0-0-------0-0-0--------|  
B|--2-2-2-0-0-0-------0-0-0--------|
G|--4-4-4-2-2-2-6-6-6-2-2-2--------|
D|--4-4-4-2-2-2-6-6-6-2-2-2-2-2-2--| x3
A|--2-2-2-------4-4-4-------2-2-2--|
E|--------------------------0-0-0--|

Pre Chorus
Guitar 1
e|--2---2---2---2---2--|
B|--2---2---2---2---2--|
G|--4---4---4---4---4--|  
D|--4---4---4---4---4--| x1
A|--2---2---2---2---2--|
E|---------------------|

Guitar 2
e|--2---0-------0------|
B|--2---0-------0------|
G|--4---2---6---2------|  
D|--4---2---6---2---2--| x1     
A|--2-------4-------2--|
E|------------------0--|

Chorus
Guitar 1
e|--2-2-2-2-2-2-2-2-----------------0-0-0-0-0-0-0-0------------------|
B|--2-2-2-2-2-2-2-2-----------------0-0-0-0-0-0-0-0------------------|
G|--4-4-4-4-4-4-4-4-----------------2-2-2-2-2-2-2-2------------------|  
D|--4-4-4-4-4-4-4-4-2-2-2-2-2-2-2-2-2-2-2-2-2-2-2-2-2-2-2-2-2-2-2-2--| x2
A|--2-2-2-2-2-2-2-2-2-2-2-2-2-2-2-2-----------------2-2-2-2-2-2-2-2--|
E|------------------0-0-0-0-0-0-0-0-----------------0-0-0-0-0-0-0-0--|

Guitar 2
e|--2-2-2-2-2-2-2-2-7-7-7-7-7-7-7-7-5-5-5-5-5-5-5-5-4-4-4-4-4-4-4-4--|
B|--2-2-2-2-2-2-2-2-7-7-7-7-7-7-7-7-5-5-5-5-5-5-5-5-4-4-4-4-4-4-4-4--|
G|--4-4-4-4-4-4-4-4-9-9-9-9-9-9-9-9-7-7-7-7-7-7-7-7-6-6-6-6-6-6-6-6--|   
D|--4-4-4-4-4-4-4-4-9-9-9-9-9-9-9-9-7-7-7-7-7-7-7-7-6-6-6-6-6-6-6-6--| x4
A|--2-2-2-2-2-2-2-2-7-7-7-7-7-7-7-7-5-5-5-5-5-5-5-5-4-4-4-4-4-4-4-4--|
E|-------------------------------------------------------------------|

Outro
Guitar 1
e|--2---2---2---2---2--|
B|--2---2---2---2---2--|
G|--4---4---4---4---4--|  
D|--4---4---4---4---4--| x4
A|--2---2---2---2---2--|
E|---------------------|

Guitar 2
e|--2---0-------0------|
B|--2---0-------0------|
G|--4---2---6---2------|  
D|--4---2---6---2---2--| x4     
A|--2-------4-------2--|
E|------------------0--|
Comments