Foo Fighters - Last Song Chords & Tabs

 

Last Song Chords & Tabs

Foo Fighters Chords & Tabs

Version: 1 Type: Tab 1 rating
1 star 2 stars 3 stars 4 stars 5 stars
comments

Last Song Tab

   
this song is one of the best on the album in my veiw


INTRO

E|-----------|
A|-2-2-2-2-2-|
D|-x-x-x-x-x-| im sure that you can figure out how long its played for
G|-4-4-4-4-4-|
B|-4-4-4-4-4-|
E|-----------|


VERSE

E|---------------------0-0|
A|-2-2-2-2-2-0-0-0-0-0-2-2|
D|-4-4-4-4-4-4-4-4-2-2-2-2| REPEAT 9 TIMES 
G|-4-4-4-4-4-4-4-4-2-2----|
B|------------------------|
E|------------------------|


LEAD UP TO COURSE

E|-----------------------|
A|-2-2-2-2-2-0-0-0-0-0-0-|
D|-4-4-4-4-4-4-4-4-2-2-2-| REPEAT 2 TIMES
G|-4-4-4-4-4-4-4-4-2-2-2-|
B|-----------------------|
E|-----------------------|


COURSE
[ Tab from: http://www.guitartabs.cc/tabs/f/foo_fighters/last_song_tab.html ]
E|---------------------------------------------0-0-0-0-0-0-0-|
A|-2-2-2-2-2-2-2-0-0-0-0-0-0-0-0-0-0-0-0-0-0-0-2-2-2-2-2-2-2-|
D|-4-4-4-4-4-4-4-4-4-4-4-4-4-4-4-2-2-2-2-2-2-2-2-2-2-2-2-2-2-|
G|-4-4-4-4-4-4-4-4-4-4-4-4-4-4-4-2-2-2-2-2-2-2---------------|
B|-----------------------------------------------------------|
E|-----------------------------------------------------------|


THEN THE VERSE COME IN AGAIN THEN THE COURSE


SOLO

E|--------------------------------|
A|--------------------------------|
D|------3-2-1-----3-2-1-----3-2-1-| THAT GOES ON FOR A LONG TIME
G|-3-2-1-----3-2-1-----3-2-1------|
B|--------------------------------|
E|--------------------------------|


AFTER THAT GO INTO THE LEAD UP TO THE COURSE THEN THE COURSE THEN FINISH OFF WITH THE VERSE

                                           
                                  GOOD LUCK!!!!!!!!!!!!!!

Comments