Foo Fighters - Iron And Stone Chords & Tabs

 

Iron And Stone Chords & Tabs

Foo Fighters Chords & Tabs

Version: 2 Type: Bass Tab 0 ratings
1 star 2 stars 3 stars 4 stars 5 stars
comments

Iron And Stone Bass Tab

Iron and Stone by Foo Fighters
Tabbed by Paul Fivey
Comments etc. to: p.fivey@dundee.ac.uk

As released on the b side of Learn To Fly in the UK,
I believe its a cover of a song by The Obsessed

Intro:

G-----------------------------------------------------------
D-----------------------------------------------------------
A------10-9--9-10-12-10-9--9-10-9-----5-4--4-5-7-5-4--4-5-4-
E-----------------------------------------------------------

G-------------------------------------------------------
D-------------------------------------------------------
A--10-9--9-10-12-10-9--9-10-9-----5-4--4-5-7-5-4--4-5-4-
E-------------------------------------------------------
[ Tab from: http://www.guitartabs.cc/tabs/f/foo_fighters/iron_and_stone_btab_ver_2.html ]
G-----------------------------------------------------------------------
D-----------------------------------------------------------------------
A--10-9--9-9-9-9-9---5-4--4-4-4-4-4----10-9--9-9-9-9-9---5-4--4-4-4-4-4-
E-----------------------------------------------------------------------

Verse:

G--------------------------------
D--------------------------------
A--5~7------10-9---5~7------5-4--
E------0-0-------------0-0-------

This is played four times

Chorus:

G---------------------------
D---------------------------
A--5~7--------------3-3-5-5-
E-------0-0--3~5~3----------

This is played four times.

First time: back to the verse
Second and third time: to bridge

Bridge:

G---------------------------------
D---------------------------------
A---------------------------------
E--0-0-0--3/5--5-5-5/7--7-7-6-5-3-

After the first bridge, there is a solo (Verse as before)
then it goes to the chorus and bridge and ends with an open E
Comments