Foo Fighters - In Your Honour Chords & Tabs

 

In Your Honour Chords & Tabs

Foo Fighters Chords & Tabs

Version: 1 Type: Tab 0 ratings
1 star 2 stars 3 stars 4 stars 5 stars
comments

In Your Honour Tab

In Your Honour

Standard Tuning (EADGBE)

(intro)-High gain a bit of reverb, high treble and bass, mid medium. opening E chord 
for a while.  Pickscrapes lead to the main riff, which is a lot like Radiohead's 'sulk'.
E---------------------------------------------------------------------------|
B---------------------------------------------------------------------------|
G-1------------------9999--8888--4444---------------------------------------|
D-2------pickscrape--xxxx--xxxx--xxxx---------------------------------------|
A-2-------////////---7777--6666--2222---------------------------------------|
E-0-------------------------------------------------------------------------|

(verse)-"Can you hear me?"  repeat until chorus
e----------------------------------------------------------------------------|
b----------------------------------------------------------------------------|
g-1111--9999--8888--4444-----------------------------------------------------|
d-2222--xxxx--xxxx--xxxx-----------------------------------------------------|
a-2222--7777--6666--2222-----------------------------------------------------|
e-0000-----------------------------------------------------------------------|

(chorus) "Mine is yours and yours is mine"

e---------------------------------------------------------------------------|
b---------------------------------------------------------------------------|
g--99999999999999999999999999999999999999999--------------------------------|
d--xxxxxxxxxxxxxxxxxxxxxxxxxxxxxxxxxxxxxxxxx--------------------------------|
a--77777777777777777777777777777777777777777--------------------------------|
e---------------------------------------------------------------------------|
[ Tab from: http://www.guitartabs.cc/tabs/f/foo_fighters/in_your_honour_tab.html ]
"There is no Divide"rpt"I will Sacrifice"
e----------------------------------------------------------------------------|
b----------------------------------------------------------------------------|
g--11111111111111111111111111111111111111111---------------------------------|
d--x-x-x-x-x-x-x-x-x-x-x-x-x-x-x-x-x-x-x-x-x---------------------------------|
a--9-9-9-9-9-9-9-9-9-9-9-9-9-9-9-9-9-9-9-9-9---------------------------------|
e----------------------------------------------------------------------------|

"In Your Honour I would Die Tonight"
e---------------------------------------------------------------------------|
b---------------------------------------------------------------------------|
g---(18)181818181818--(16)16161616161616--(15)15151515151515----------------|
d---(x-)x-x-x-x-x-x---(x-)x-x-x-x-x-x-x---(x-)x-x-x-x-x-x-x-----------------|
a---(16)161616161616--(14)14141414141414--(13)13131313131313----------------|
e---------------------------------------------------------------------------|

Repeat chorus
" For You to feel alive!"
Play main riff (see verse)

(spunkadelic bit) all goes a bit mental, not sure if this is correct.  Bassically you 
on playing it until theres a QOTSA style halt and then Dave screams back in and you play 
bit as fast as you can.
e---------------------------------------------------------------------------|
b---------------------------------------------------------------------------|
g-9-------------------8--------------------8-9------------------------------|
d-9-------------------8--------------------8-9------------------------------|
a-7-------------------6--------------------6-7------------------------------|
e-0-0h7p0h7-0h7p0h7p0--0h7p0h7p0-0h7p0h7p0----------------------------------|

Rock on Foo Fighters, there will be few stadiums that can contain this track
Comments