Foo Fighters - In Your Honor Chords & Tabs

 

In Your Honor Chords & Tabs

Foo Fighters Chords & Tabs

Version: 1 Type: Bass Tab

In Your Honor Bass Tab

Intro:
G|------------|
D|------------|
A|------------|
E|---0--------|  (let it ring)


Main riff (come in 0:31):
G|--------------------------------------------------------------------|
D|--------------------------------------------------------------------|
A|-------------------7-7-7-7-7-7-7-7-6-6-6-6-6-6-6-6------------------|
E|--0-0-0-0-0-0-0-0----------------------------------7-7-7-7-7-7-7-7--|

[ Tab from: http://www.guitartabs.cc/tabs/f/foo_fighters/in_your_honor_btab.html ]
Chorus:
G|------------------------------------------------------------|
D|------------------------------------------------------------|
A|--7-32------9-x32----4-x16-----7-x16------9-x24------9^-x8--|
E|------------------------------------------------------------|

Play the main riff once, then play this riff:

G|--------------------------------------------------------------------------|
D|---------------------------------------------------------7-7-7-7-7-7-7-7--|
A|-----------------7-7-7-7-7-7-7-7-6-6-6-6-6-6-6-6--------------------------|
E|-0-0-0-0-0-0-0-0----------------------------------------------------------|

Outro:
G|----------------|
D|----------------|
A|----------------|
E|--007700006609--|


Variation of outro:
Outro:
G|-----------------|
D|-----------------|
A|-----------------|
E|--007709-006609--|