Foo Fighters - I'll Stick Around Chords & Tabs

 

I'll Stick Around Chords & Tabs

Foo Fighters Chords & Tabs

Version: 1 Type: Bass Tab 1 rating
1 star 2 stars 3 stars 4 stars 5 stars
comments

I'll Stick Around Bass Tab

Foo Fighters
I'll Stick Around

This is a correction of the tab originally done 
by: jazzbass@cfw.com

Here's the corrected version.

  Intro (Drum Roll)	   Intro (Repeat)
G|------------------------|------------------------|
D|------------------------|----1-----3-----1-------|
A|------------------------|------1-3---------1-3-1-|
E|------------------------|3-3---------3-3---------|

Verse x2                   Then 
G|------------------------|-----------------|
D|------------------------|-----------------|
A|----0-------0-------0---|-----------------|
E|3-3---3-1-1---1-0-0---0-|-333333333333333-|
[ Tab from: http://www.guitartabs.cc/tabs/f/foo_fighters/ill_stick_around_btab.html ]
Chorus Intro x2            Then
G|------------------------|-----------------|
D|------------------------|-----------------|
A|1-111-------5-555-5-555-|5-55555555555555-|
E|------3-333-------------|-----------------|

  Chorus (Repeat)
G|------------------------|
D|----1-----3-----1-------|
A|------1-3---------1-3-1-|
E|3-3---------3-3---------|

Bridge x 3                         Then
G|--------------------------------|-----------------|
D|111111113333333355555555--------|1111111133333333-|
A|------------------------5553355-|-----------------|
E|--------------------------------|-----------------|

This is a complete transcription of the song. You'll have to figure out
where to put the parts. Thanks.
Comments/Further Corrections: snoman@attcanada.net

Comments