Foo Fighters - Hey Johnny Park Chords & Tabs

 

Hey Johnny Park Chords & Tabs

Foo Fighters Chords & Tabs

Version: 2 Type: Bass Tab 0 ratings
1 star 2 stars 3 stars 4 stars 5 stars
comments

Hey Johnny Park Bass Tab

Artist - Foo FighterS
Song - Hey Johhny Park!
Intro.
G------------|---------------------|--------|
D------------|---------------------|--------|
A-2--22--0-00|---------------------|------55|
D------------|2-22-222-2--2-2-0-2-4|-55-----|

G----------------|-------|----------|---------------------|----------|
D-----------5----|-------|----------|---------------------|----------|
A-5-7-7-5-7---7-7|-------|-2-22-0-00|---------------------|------5555|   
D----------------|2 0 2 0|----------|2-22-222-2--2-2-0-2-4|-55-------|

Verse's 1 and 2


G-------4-2-4-6|----7-------7|-------4-2-4-2|--7-66-7------|------4-2---4-2-42|
D---4-4--------|-------------|--4-4---------|-7-------7----|-4-4--------------|
A-2------------|5-5----77-7--|-2------------|----------5---|2-----------------|
D--------------|-------------|--------------|--------------|------------------|

G---------------------|-------------|------------|
D---------------------|-------------|------------|
A---0-0-0--00-00-5-2--|-------------|------------|
D---------------------|2-22-0202-2-0|202-2-02--24|

Chorus.

G--------------------|----------|------------------------|----------|
D--------------------|-00-22-4-0|------------------------|-00-22-4-0|
A--------------------|----------|------------------------|----------|
D-5-5-4-5-2-2-5-4-0-0|----------|--5-5-4-5-2-2-5-4-0-0---|----------|

G--------------------|------------|------------------|---------------|
D--------------------|-7-0-5-4-0--|------------------|---------------|
A--------------------|-----------0|-3-3-3-3-5-2-2-2-5|---------------|
D-5-5-4-5-2-2-5-4-0-0|------------|------------------|3-3-3-3-0-0-00-0|

[ Tab from: http://www.guitartabs.cc/tabs/f/foo_fighters/hey_johnny_park_btab_ver_2.html ]
this part occurs after the third chorus and before that funny sounding guitar piece
"Now that I've found my reward....." 
G------------------|------------|---------------------|------------|	
D------------------|------------|---------------------|------------|	
A----------------0-|-2-22--0-00-|---------------------|--2-22--0-00|
D 2 22 222 2  222  |------------|-2-22-222-2--2-0-2-0-|------------|
     
G----------------------|----------|
D----------------------|----------|
A----------------------|------5555|
D-2-22-222-2--2-2-0-2-4| 55-------|

>From here on the tabbling matches the song till the end

G------------|------------------|----------------|------------------|
D------------|------------------|----------------|------------------|
A------------|--2-222-22222--2-2|-----5-55555-5-5|  2 222 22222  2 2| 
D-5---55--5-4|------------------|0 00------------|------------------|



G------------------|----------------|------------------|  			
D------------------|----------------|------------------|
A--2-222-22222--2-2|-----5-55555-5-5|--2-222 22222--2-2|
D------------------|----------------|------------------|

G------------|----------|---------------------|		    
D------------|----------|-------4-------------|		    
A-------5-55-|------5-55| 2 222   0 2 2 22 0 5| 
D--0-00------|-0-00-----|---------------------|

G---------------|--------------------|----------|		    
D---------------|--------------------|----------|		    
A-0-0020250-2025|--------------------|----------| 
D---------------|-2-22-222-2--2-0-2-0|-202-2-2-4|

G-------------|---------------|-------------|------------------|	
D----------797|-0000--7-0-54--|----------797|-7-7-5-5-4-----7-9|
A--------5----|---------------|--------5----|-----------7-5----|
D-5555-5------|---------------|-5555-5------|------------------|

G-----------------|---------------|
D-----------------|---------------|
A-3-3-3-35-2-2-2--|---------------| play this twice
D----------------0|3 3 3 3 0 0 0 0|


G------------------|---------------|
D---------------5-7|---------------|
A-3-3-3-3-3-5-7----|---------------| this once
D------------------|3-3-3-3-0-0-0-0|



G------------------|---------------|
D---------------5-7|---------------|  this one is played last
A-3-3-3-3-3-5-7----|---------------| 
D------------------|3-3-3-3-0-0-5-0|


you'll have to figure the rythym out yourself sorry, but after a 
lot of hard work this is definately the tabbing for Hey Johhny Park!
Comments