Foo Fighters - Hell Chords & Tabs

 

Hell Chords & Tabs

Foo Fighters Chords & Tabs

Version: 1 Type: Tab 0 ratings
1 star 2 stars 3 stars 4 stars 5 stars
comments

Hell Tab

Band:Foo Fighters
Song:Hell
Album:In Your Honour Disk 1 
hi everyone this is my first tab, thought id give back to what ive 

taken so much out of, hope you enjoy it im pretty sure it's 

accurate but if you want to comment my Email address is 

Jyekkil@hotmail.com, this is a brilliant song and i hope you enjoy 

it!


INTRO
e:------------------------------|
B:------------------------------|
G:-----7----strum alot----------|
D:------------------------------|
A:-----5------------------------|
E:------------------------------|



INTO-VERSE 
e|-------------------------|
B|-------------------------|
G|--12--11-9-7-9-7-5-5-4-2-| X2
D|-------------------------|
A|--10--9--7-5-7-5-3-3-2-0-|
E|-------------------------|
[ Tab from: http://www.guitartabs.cc/tabs/f/foo_fighters/hell_tab.html ]
INTRO-VERSE PART B (do this bit the third time round,
then go back to the first part, you'll get it)
e|--------------------------------------|
B|--------------------------------------|
G|--12--11-9-7-9-7-5-7-9-11-12-12-12-11-| 
D|--------------------------------------|
A|--10--9--7-5-7-5-3-5-7-9--10-10-10-9--|
E|--------------------------------------|
then back to strumming until the melody kicks in again

"...show you everything" / "...see you in hell"
e|--------------------------------------|
B|--------------------------------------|X2 
G|--12--11-9-7-9-7-5-7-9-11-12-12-12-11-| 
D|--------------------------------------|
A|--10--9--7-5-7-5-3-5-7-9--10-10-10-9--|
E|--------------------------------------|

the part "...well gather round the fire, and i will lead the 

choir"
is basically G to D, though for "sing farewell" i think it goes A 

to G to D, fiddle around with it and you'll get it in the end.

OUTRO:

e|--------------------------------------|
B|--------------------------------------|
G|--14---Strum until end----------------| 
D|--------------------------------------|
A|--12----------------------------------|
E|--------------------------------------|
2nd guitar just strums D.

and that's it!
Comments