Foo Fighters - Have A Cigar Chords & Tabs

 

Have A Cigar Chords & Tabs

Foo Fighters Chords & Tabs

Version: 2 Type: Tab 0 ratings
1 star 2 stars 3 stars 4 stars 5 stars
comments

Have A Cigar Tab

This tab was writed by Itamar Nitzan from Israel.
I don't know if its the right one, but its sounds the same! so fucking enjoy!

Distortion

E|-----------------------------|
B|-----------------------------|
G|--9-9-9-9-9----9-9-9-9-9-9-12|  X3                       
D|--9-9-9-9-9----9-9-9-9-9-9-12|
A|--7-7-7-7-7----7-7-7-7-7-7-10|
E|-----------------------------|

(0:16)
E|----------------------------------------------------------------
B|----------------------------------------------------------------
G|--9-9-9-9-9--9-9-9-11-12----------------------------------------
D|--9-9-9-9-9--9-9-9-11-12---10-10-10-10-10---10-10-10-10-10-10-13
A|--7-7-7-7-7--7-7-7--9-10---10-10-10-10-10---10-10-10-10-10-10-13
E|----------------------------8--8--8--8--8----8--8--8--8--8--8-11
[ Tab from: http://www.guitartabs.cc/tabs/f/foo_fighters/have_a_cigar_tab_ver_2.html ]
E|------------------------------------------------------------|
B|------------------------------------------------------------|
G|--------------------------------9-9-9-9-9----9-9-9-9-9-9-12-|
D|-10-10-10-10-10--10-10-10-5-4---9-9-9-9-9----9-9-9-9-9-9-12-|
A|-10-10-10-10-10--10-10-10-5-4---7-7-7-7-7----7-7-7-7-7-7-10-|
E|--8--8--8--8--8---8--8--8-3-2-------------------------------|

(00:38)
E|-------------------------------------------------------------------|
B|-------------------------------------------------------------------|
G|-------------------12--11--9--7--2\8--9-9-9-9-9--------------------|
D|-10--10-10-10-10---12--11--9--7--2\8--9-9-9-9-9--------------------|
A|-10--10-10-10-10---10---9--7--5--4\6--7-7-7-7-7.......ON AND ON...-|
E|--8---8--8--8--8---------------------------------------------------|
 
(01:16)
E|------------------------|
B|------------------------|
G|------7---9-9-9-9-9.....|
D|-10---7---9-9-9-9-9.....|
A|-10---5---7-7-7-7-7.....|
E|--8---------------------|

(01:26)
E|-------------------------------------------------------------|
B|-------------------------------------------------------------|
G|----------------11-12--9--7----12-11-11-10---9-9-9-9-9.......|
D|-10-12-14-10----11-12--9--7----12-11-11-10---9-9-9-9-9.......|
A|-10-12-14-10-----9-10--7--9----10--9--9--8---7-7-7-7-7.......|
E|--8-10-12--8-------------------------------------------------|


I don't no the lead guitar solo...so its only the distortion
Comments