Foo Fighters - Halo Chords & Tabs

 

Halo Chords & Tabs

Foo Fighters Chords & Tabs

Version: 3 Type: Tab 0 ratings
1 star 2 stars 3 stars 4 stars 5 stars
comments

Halo Tab

   
a great song apparently written about kurt.this tab is 100% correct so please rate it
for the hard work i put in.there are no other good tabs on this site for this song.
tabbed by timi ferguson.
intro/verse pt 1
  Em7  D7m G
e--------------------|
B-33333-33-3-333-333-|
G-00000-xx-0-000-000-|
D-22222-00-0-000-000-|
A-xxxxx-xx-x-xxx-xxx-|
E----------3-333-333-|
verse pt 2
  F                 Am
e-------------------------------------|
B-1-11-111-1-11-111-1-11-111-1-11-111-|
G-2-22-222-2-22-222-2-22-222-2-22-222-|
D-3-33-333-3-33-333-2-22-222-2-22-222-|
A-------------------0-00-000-0-00-000-|
E-------------------------------------|
verse order-verse pt1x2
            verse pt2
            verse pt1x2
            verse pt2
pre chorus
  A#/Bb    G        A#/Bb    G        A#/Bb    G        C
e----------3-33-333----------3-33-333----------3-33-333-------------------|
B----------3-33-333----------3-33-333----------3-33-333-1-11-111-1-11-111-|
G-3-33-333-0-00-000-3-33-333-0-00-000-3-33-333-0-00-000-0-00-000-0-00-000-|
D-3-33-333-0-00-000-3-33-333-0-00-000-3-33-333-0-00-000-2-22-222-2-22-222-|
A-1-11-111-2-22-222-1-11-111-2-22-222-1-11-111-2-22-222-3-33-333-3-33-333-|
E----------3-33-333----------3-33-333----------3-33-333-------------------|
chorus
  G        F#/D     F        C        D#/Eb    D        C         D
e-3-33-333-------------------------------------2-22-222----------x222222-|
B-3-33-333-3-33-333-1-11-111-1-11-111----------3-33-333-1-11-111-x333333-|
G-0-00-000-2-22-222-2-22-222-0-00-000-8-88-888-2-22-222-0-00-000-x222222-|x2
D-0-00-000-0-00-000-3-33-333-2-22-222-8-88-888-0-00-000-2-22-222-x000000-|
A-2-22-222-x-xx-xxx----------3-33-333-6-66-666----------3-33-333---------|
E-3-33-333-2-22-222------------------------------------------------------|
bridge pt1
  D#/Eb    D        C        D        D#/Eb    F
e-------------------------------------------------------------|
B-------------------------------------------------------------|
G-8-88-888-7-77-777-5-55-555-7-77-777-8-88-888-10-1010-101010-|
D-8-88-888-7-77-777-5-55-555-7-77-777-8-88-888-10-1010-101010-|
A-6-66-666-5-55-555-3-33-333-5-55-555-6-66-666--8--8-8--8-8-8-|
E-------------------------------------------------------------|
bridge pt2
  D#/Eb    D        D#/Eb    F
e-------------------------------------------|
B-------------------------------------------|
G-8-88-888-7-77-777-8-88-888-10-1010-101010-|
D-8-88-888-7-77-777-8-88-888-10-1010-101010-|x2
A-6-66-666-5-55-555-6-66-666--8--8-8--8-8-8-|
E-------------------------------------------|
solo(chorus chords rhythm)
  G         F#/D     F        C       D#/Eb    D          C          D
e---------------------------------------------------------------------------|
B-12--------8--------------------------------8-101010-8-7-----7-8-10-7-8-10-|
G--------------------7--------9997----888-10--------------999---------------|
D----------------------------------10---------------------------------------|
A---------------------------------------------------------------------------|
E---------------------------------------------------------------------------|
  G        F#/D     F           C       D#/Eb    D          C
e--------7-------------------------------------------------------------|
B-888-10---777-8-10--------8-10----------------8-101010-8-7-----7-8-10-|
G-------------------101010------9997----888-10--------------999--------|
D------------------------------------10--------------------------------|
A----------------------------------------------------------------------|
E----------------------------------------------------------------------|
  D
e-14-15-17-|
B----------|
G----------|
D----------|
A----------|
E----------|
outro
play bridge pt1x1
introx3
end on
e-------------|
B-33333-33-3--|
G-00000-xx-0--|
D-22222-00-0--|
A----------x--|
E----------3--|
[ Tab from: http://www.guitartabs.cc/tabs/f/foo_fighters/halo_tab_ver_3.html ]
Comments