Foo Fighters - Friend Of A Friend Chords & Tabs

 

Friend Of A Friend Chords & Tabs

Foo Fighters Chords & Tabs

Version: 2 Type: Tab 0 ratings
1 star 2 stars 3 stars 4 stars 5 stars
comments

Friend Of A Friend Tab

Foo Fighters - Friend Of A Friend

Album: 2005 - In Your Honor
Instrument: Guitar
Tuning: eBGDAE (Normal)


[ Tab from: http://www.guitartabs.cc/tabs/f/foo_fighters/friend_of_a_friend_tab_ver_2.html ]
Main riff--Verse/Intro
                   
e||-------------------------||
B||-------6-----------3-----||
G||-------0-----------0-----||
D||--5-5-----5---2-2-----2--||
A||--6-6-----6---3-3-----3--||
E||-------------------------||




e||--------||
B||--5--3--||
G||--0--0--||
D||--4--2--||
A||--5--3--||
E||--------||
   "no one speaks"

Comments