Foo Fighters - Friend Of A Friend Chords & Tabs

 

Friend Of A Friend Chords & Tabs

Foo Fighters Chords & Tabs

Version: 1 Type: Tab 0 ratings
1 star 2 stars 3 stars 4 stars 5 stars
comments

Friend Of A Friend Tab

#----------------------------------PLEASE NOTE---------------------------------#
#This file is the author's own work and represents their interpretation of the #
#song. You may only use this file for private study, scholarship, or research. #
#------------------------------------------------------------------------------##

From: Idar "Cervezita" Wiik (Cheabz) (idarwiik@hotmail.com)

Date: 25.06.05


Song: Friend of a Friend
Artist: Foo Fighters/Late
Album: In Your Honor/Pocketwatch
Lyrics: Provided by www.sing365.com
[ Tab from: http://www.guitartabs.cc/tabs/f/foo_fighters/friend_of_a_friend_tab.html ]
G´day mate!
So I was sitting here listening through the new Foo Fighters album, and I heard friend of
a friend, and thought "why not tab it as easy as it is". So I got my brand new guitar bought
in Granada, Spain. A great guitar by the way. Anyway, it took me 3 secs to get it, so here
it is. Friend of a friend.

Tuning: EADGBe (normal)

Verse:

e|--------------------------|
B|------6------------3------|
G|--8-8---8-8/7--5-5---5-5--|
D|--8-8---8-8/7--5-5---5-5--|
A|--6-6---6-6/5--3-3---3-3--|
E|--------------------------|

Chorus (or the other riff):

e|----------------------------|
B|------6---------------------|
G|--8-8---8-8/7--7--5--5-5/7--|
D|--8-8---8-8/7--7--5--5-5/7--|
A|--6-6---6-6/5--5--3--3-3/5--|
E|----------------------------|




Btw.
I´m sorry for not writing where and when you have to play the riffs, but
listen to the song and you´ll find out that there are 2 riffs, and it´s not
really hard to find out where they fit.
Comments