Foo Fighters - Free Me Chords & Tabs

 

Free Me Chords & Tabs

Foo Fighters Chords & Tabs

Version: 3 Type: Tab 0 ratings
1 star 2 stars 3 stars 4 stars 5 stars
comments

Free Me Tab

                            FOO FIGHTERS
                              FREE ME


STANDARD TUNING
EADGBe


--------0-------0-------0---------------|
--------0-------0-------0---------------|
--------0-------0-------0---------------|
--------2-------2-------2---------------|x4
------2-------2-------2-------2---1-0---|
--0-0-----0-0-----0-0-----0-0---0-------|
[ Tab from: http://www.guitartabs.cc/tabs/f/foo_fighters/free_me_tab_ver_3.html ]
on fifth time play it like this
--------0-------0-------0----------------------------|
--------0-------0-------0----------------------------|
--------0-------0-------0-----4---3-2------4---3-2---|
--------2-------2-------2-2-2-4-2-3-2--2-2-4-2-3-2---|
------2-------2-------2---2-2-2-2-1-0--2-2-2-2-1-0---|
--0-0-----0-0-----0-0-----0-0---0------0-0---0-------|

-------------------------------------------|
-------------------------------------------|
-------------------------------------------|
--------2b-------2b-------2b---------------|x4
------2--------2--------2--------2---1-0---|
--0-0------0-0------0-0------0-0---0-------|

outro
----------------------------0----------------|
----------------------------0----------------|
------4---3-2------4---3-2--0----------------|
--2-2-4-2-3-2--2-2-4-2-3-2--2----------------|
--2-2-2-2-1-0--2-2-2-2-1-0--2-let ring-------|
--0-0---0------0-0---0------0----------------|

after this it repeats the same stuff over
thats it
peace
Comments