Foo Fighters - February Stars Chords & Tabs

 

February Stars Chords & Tabs

Foo Fighters Chords & Tabs

Version: 1 Type: Bass Tab 0 ratings
1 star 2 stars 3 stars 4 stars 5 stars
comments

February Stars Bass Tab

February Stars- by the Foo Fighters from "the Colour and the Shape"
tabbed by weevil(sub@servtech.com)

standard tuning

bass rests for a while

(1)
G|----------------------------------------------------------------
D|---------------------------2--0--2--2----2-0-2-4-5--------------
A|--2--2-2--5--0---0---2--5---------------------------------------
E|----------------------------------------------------------------

G|----------------------------------------------------------------
D|--5--4--2----------2------2-2-----------------------------------
A|-----------5-5-2-5------5---------------------------------------
E|----------------------------------------------------------------

G|----------------------------------------------------------------
D|----------------------------------------------------------------
A|-5--5---5----5---5----------------------------------------------
E|----------------------------------------------------------------

///////////////////////////////////////////////////////////////////
[ Tab from: http://www.guitartabs.cc/tabs/f/foo_fighters/february_stars_btab.html ]
(2)
G|----------------------------------------------------------------
D|--5---5--5--------------------4--4-4-2-4-5----------------------
A|----5------5-----5----5-4-2-0--------------------------2--5-----
E|--------------3-------------------------------------------------

G|----------2-----------------------------------------------------
D|--2-2-2-0---5---------------2-5-4-2-----------------------------
A|------------------------------------5---------------------------
E|----------------------------------------------------------------

//////////////////////////////////////////////////////////////////

"even though" though "heals the soul" is theme (2)

small riff
G|----------------------------------------------------------------
D|---2-4-2--5-4-2-------------------------------------------------
A|-5---------------5----------------------------------------------
E|----------------------------------------------------------------

"you ask for walls" through "and fall" is theme (1) 

G|----------------------------------------------------------------
D|-----------------5---5------------------------------------------
A|-------5------5--------5-- 5-5-4-2------------------------------
E|-3-2-0----3-3------------3----------5------2--2--2-0-2-3--------

G|----------------------2-----------------------------------------
D|------------2-2-2-2-----5-5---5-4-2-----------------------------
A|--------2-5---------5-------5-------5-5--5-5--------------------
E|--3-3-3---------------------------------------------------------


Comments