Foo Fighters - Exhausted Chords & Tabs

 

Exhausted Chords & Tabs

Foo Fighters Chords & Tabs

Version: 1 Type: Chords 0 ratings
1 star 2 stars 3 stars 4 stars 5 stars
comments

Exhausted Chords

   
#----------------------------------PLEASE NOTE---------------------------------#
#This file is the author's own work and represents their interpretation of the #
#song. You may only use this file for private study, scholarship, or research. #
#------------------------------------------------------------------------------#

hydrablade@msn.com

Exhausted - Foo Fighters
Album - Foo fighters


Droppd D Tuning

E B G D A D

By the Book - Song is pretty distorted but you can download the live version on an acoustic to get the sound of it and the 
timing. Live versions found at http://www.foofighters.com under multimedia and video.

Chords

Dm   G7/B   FMaj9  Am  Bb5  G/B(t2)  

-1----1-------0-----0---1-----------------
-3----0-------2-----1---1----3------------
-2----0-------0-----2---3----0------------
-0----0-------3-----2---3----0------------
-0----2-------0-----0---1----2------------
-0----3-------0-----0---------------------


The intro is played through most of the song backed up by a second guitar 
I have the second part for the guitar but Ill get to it next time. Heres the first guitar part anyways


Intro

Dm G7/B FMaj9 Am FMaj9 Am




This part Ill tab of the interlude to give you an idea of how its goes

[ Tab from: http://www.guitartabs.cc/tabs/f/foo_fighters/exhausted_crd.html ]
F5 G5 A5 F5 D5 F5 D5 F5 D5                 D5   F5 G5 A5 F5 D5 F5 D5 F5 D5                           D5
--------------------------------------------------------------------------------------------------------------|
--------------------------------------------------------------------------------------------------------------|
--------------------------------------------------------------------------------------------------------------| Repeat once
--------------------------------------------------------------------------------------------------------------|
-3--5--7--3--0--3--0--3--0------------------0---3--5--7--3--0--3--0--3--0-----------------------------0-------|
-3--5--7--3--0--3--0--3--0-4-5-7----7/14----0---3--5--7--3--0--3--0--3--0-------4--5--6--10--10--10---0-------|


Dm  G7  FMaj9      A5(t2)            F5(t2)       A5(t2)
-1---1--------------5-5-5-5-5-5-5-0---1-1-1-1-1-1-1-0---5-5-5-5-5-5-5-5---------------------------------------
-3-------2----------5-5-5-5-5-5-5-0---1-1-1-1-1-1-1-0---5-5-5-5-5-5-5-5---------------------------------------
-2------------------5-5-5-5-5-5-5-0---0-0-0-0-0-0-0-0---5-5-5-5-5-5-5-5---------------------------------------
---------3----------7-7-7-7-7-7-7-----3-3-3-3-3-3-3-----7-7-7-7-7-7-7-7---------------------------------------
-----2--------------7-7-7-7-7-7-7-----3-3-3-3-3-3-3-----7-7-7-7-7-7-7-7---------------------------------------
-----3--------------------------------------------------------------------------------------------------------

Back to the verse for verse 3 this time follow through with the interlude right after
Repeat the first part of the interlude four times after the verse and after a long pause finish up the second 
part of the interlude and the outro is basically the same as the intro but it fades out whenever your done. If you 
listen to the song you'll understand what I mean.
Comments