Foo Fighters - Everlong Chords & Tabs

 

Everlong Chords & Tabs

Foo Fighters Chords & Tabs

Version: 7 Type: Tab 0 ratings
1 star 2 stars 3 stars 4 stars 5 stars
comments

Everlong Tab

   
Name: Nick Yourgules

Tabs: Foo Fighters: Everlong (Acoustic)
Transcribed by: Nick Yourgules
nyourgules@hotmail.com

Dropped D Tuning D,a,D,g,b,e

Verse:
e:---------------------------------------------------------------
b:---------------------------------------------------------------
g:----11--1111-11-11-111111-----11-1111-11-11-111111-----7---7---
d:----11--1111-11-11-111111-----11-1111-11-11-111111-----7---7---
a:-----9---9-9--9--9--9-9-9------9--9-9--9--9--9-9-9-----5---5---
D:-0-0---0----0--0--0------0-9-9--9----9--9--9------0-5-5-5-5----

e:---------------------------------------------------------------
b:---------------------------------------------------------------
g:----11---11---11---11------------------------------------------
d:----11---11---11---11------------------------------------------
a:-----9----9----9----9------------------------------------------
D:-9-9--9-9--9-9--9-9--0-----------------------------------------
[ Tab from: http://www.guitartabs.cc/tabs/f/foo_fighters/everlong_tab_ver_7.html ]
Pre-Chorus
e:------------------------------------------
b:------------------------------------------
g:-6-6-6-7-7-7-9-9-9111111-12-12-12---------
d:----------------------------------7-7-7-7-
a:-4-4-4-5-5-5-7-7-7-9-9-9-10-10-10-7-7-7-7-
D:----------------------------------7-7-7-7-

Chorus: (repeatx3)
e:-----------------------------------------
b:-----------------------------------------
g:-4-4-4-4-4-----------7-7-7-7-7-7-7-7-7-7-
D:-4-4-4-4-4-5-5-5-5-5-7-7-7-7-7-7-7-7-7-7-
a:-2-2-2-2-2-5-5-5-5-5-5-5-5-5-5-5-5-5-5-5-
D:-----------5-5-5-5-5---------------------

The last time (you gotta promise not to stop when I say when...)
e:---------------------------------------------------------------
b:---------------------------------------------------------------
g:-4-4-4-4-4-----------7-7-7-7-7---------------------------------
D:-4-4-4-4-4-5-5-5-5-5-7-7-7-7-7-7-7-7-7-7-7-0-5-5-5-5-5-5-5-5-5-
a:-2-2-2-2-2-5-5-5-5-5-5-5-5-5-5-7-7-7-7-7-7-0-5-5-5-5-5-5-5-5-5-
D:-----------5-5-5-5-5-----------7-7-7-7-7-7-0-5-5-5-5-5-5-5-5-5-

She sang...
end on
g:-11---------
d:-11---------
a:--9---------
D:--0---------
Listen to song for timing and order.  On the last pre-chorus just use 
the octaves over and over instead of the chord on the 7th fret.

any questions or corrections send e-mail

---------------------------------------------------------------------------
Comments