Foo Fighters - Everlong Chords & Tabs

 

Everlong Chords & Tabs

Foo Fighters Chords & Tabs

Version: 4 Type: Tab 1 rating
1 star 2 stars 3 stars 4 stars 5 stars
comments

Everlong Tab

#----------------------------------PLEASE NOTE--------------------------------#
#This file is the author's own work and represents their interpretation of the#
#song. You may only use this file for private study, scholarship, or research.#
#-----------------------------------------------------------------------------#


Date: Sun, 26 Oct 1997 17:57:04 -0800 (PST)
Subject: TAB: Foo Fighters - Everlong

Everlong by Foo Fighters
Submitted by Masaru Shimizu (iron_eagle@geocities.com)

Here is the *RIGHT* one now. (Boy, was I shamefully wrong on the first one)

Special Thanks to Jason (trachtenberg@worldnet.att.net) and
                  Adam  (tsmart@awinc.com)

They're the ones that sent me the correct TAB for Everlong.  I was completely
wrong on my first one.  Ignore my first TAB please... I just wrote this
TAB out.  So, THANX to Jason and Adam!
This TAB probably needs a little adjusting, so adjust according to what you
think is right.

Drop the low E into a D

Intro  Clean
e|--------------------------------------------------------------------------
B|--------------------------------------------------------------------------
G|--------------------------------------------------------------------------
D|-----11-11---11--11-11--11-11-11-------11-11---11--11-11--11-11-11--------
A|-----9--9----9---9--9---9--9--9--------9--9----9---9--9---9--9--9---------
D|-0-0-------0-----0--0---0--0--0--0-9-9-------9-----9--9---9--9--9--9------

 ---------------------------------------------------------------------------
 ---------------------------------------------------------------------------
 ---------------------------------------------------------------------------
 ------7---7-7-7-----11-11--11--11-11-11-11-11-11-11-11---------------------
 ------5---5-5-5-----9--9---9---9--9--9--9--9--9--9--9----------------------
 --5-5---5-------9-9------9-----9--9--9--9--9--9--9--9----------------------

Distortion
 ------------------------------------------------------------|
 ------------------------------------------------------------|
 ----11-----11-11-11-----11---7------11-11-11-11-11-11-11-11-|
 ----11-----11-11-11-----11---7------11-11-11-11-11-11-11-11-|
 ----9------9--0--9------9--0-5------9--9--9--9--9--9--9--9--|
 -----------------9------9--0-5------9--9--9--9--9--9--9--9--|
                                                              Bridge

Bridge
e|-----------------------------------
B|-----------------------------------
G|-9---9---9---9---9---9---9--11-9---
D|-11--11--11--11--11--11--11-11-11--  x2
A|-9---9---9---9---9---9---9--9--9---
D|-----------------------------------

 --------------------------------------------------|
 --------------------------------------------------|
 --7--7--7--7--9---9---9--11-9---9---9---9--11-9---|
 --9--9--9--9--11--11--11-11-11--11--11--11-11-11--|
 --7--7--7--7--9---9---9--9--9---9---9---9--9--9---|
 --------------------------------------------------|

[ Tab from: http://www.guitartabs.cc/tabs/f/foo_fighters/everlong_tab_ver_4.html ]
Chorus
e|---------------------------------------------------
B|---------------------------------------------------
G|-11-11-11-11-11-11-11-11-11-11-11-11-11-11-11-11---
D|-11-11-11-11-11-11-11-11-11-11-11-11-11-11-11-11---
A|-9--9--9--9--9--9--9--9--9--9--9--9--9--9--9--9----
D|-0--0--0--0--0--0--0--0--0--0--0--0--0--0--0--0----
1. He ---- llo             

 ----------------------------------------------------
 ----------------------------------------------------
 --11-11-11-11-11-11-11-11-11-11-11-11-11-11-11-11---
 --11-11-11-11-11-11-11-11-11-11-11-11-11-11-11-11---
 --9--9--9--9--9--9--9--9--9--9--9--9--9--9--9--9----
 --9--9--9--9--9--9--9--9--9--9--9--9--9--9--9--9----
1. waited here for you


 ------------------------------------------------------------------|
 ------------------------------------------------------------------|
 --7-7-7-7-7-7-7-7-11-11-11-11-11-11-11-11-11-11-11-11-11-11-11-11-|
 --7-7-7-7-7-7-7-7-11-11-11-11-11-11-11-11-11-11-11-11-11-11-11-11-|
 --5-5-5-5-5-5-5-5-9--9--9--9--9--9--9--9--9--9--9--9--9--9--9--9--|
 --5-5-5-5-5-5-5-5-9--9--9--9--9--9--9--9--9--9--9--9--9--9--9--9--|
1.             e---ver---long                           (Course 2)


Riff
e|-------------------------------------------|
B|-------------------------------------------|
G|-------------------------------------------|
D|--------------------------------7----------|
A|-4-4-4-5-5-5-7-7-7-9-9-9-9-10-9-7~~~~~-----|
D|--------------------------------7----------|


Verse
e|-------------------------------------------------------------------------
B|-------------------------------------------------------------------------
G|-------------4-4-4-4-4-4-4-----------------7--7--7-7-7-7--7-7--7-7-7-----
D|-------------4-4-4-4-4-4-4--5--5-5--5-5-5--7--7--7-7-7-7--7-7--7-7-7-----
A|-------------2-2-2-2-2-2-2--5--5-5--5-5-5--5--5--5-5-5-5--5-5--5-5-5-----
D|----------------------------5--5-5--5-5-5--0--0--0-0-0-0--0-0--0-0-0----
   

  -------------------------------------------------------------------------
  -------------------------------------------------------------------------
  -------------4-4-4-4-4-4-4-----------------7--7--7-7-7-7--7-7--7-7-7-----
  -------------4-4-4-4-4-4-4--5--5-5--5-5-5--7--7--7-7-7-7--7-7--7-7-7-----
  -------------2-2-2-2-2-2-2--5--5-5--5-5-5--5--5--5-5-5-5--5-5--5-5-5-----
  ----------------------------5--5-5--5-5-5--0--0--0-0-0-0--0-0--0-0-0-----
    

 --------------------------------------------------------------------------
 --------------------------------------------------------------------------
 ------------4-4-4-4-4-4-4-----------------7--7--7-7-----------------------
 ------------4-4-4-4-4-4-4--5--5-5--5-5-5--7--7--7-7--7--7-7--7-7-7--------
 ------------2-2-2-2-2-2-2--5--5-5--5-5-5--5--5--5-5--7--7-7--7-7-7--------
 ---------------------------5--5-5--5-5-5--0--0--0-0--7--7-7--7-7-7--------

                                              

 -------------------------------|
 -------------------------------|
 -------------------------------|
 ---5-5-5--5-5-5--5-5-5--5-5-5--|
 ---5-5-5--5-5-5--5-5-5--5-5-5--|
 ---5-5-5--5-5-5--5-5-5--5-5-5--|
 

Comments