Foo Fighters - Doa Chords & Tabs

 

Doa Chords & Tabs

Foo Fighters Chords & Tabs

Version: 5 Type: Tab 0 ratings
1 star 2 stars 3 stars 4 stars 5 stars
comments

Doa Tab

   
--------------------------------------------------------------------------
DOA - Foo Fighters
--------------------------------------------------------------------------
Tabbed by: Barry Miles
Email: shoebox_of_lies@hotmail.com

Tuning: Standard (EADGBe)

Intro/Beginning Verse

e|------------------------------|
B|-1---1---1-1---1---1---1-1--1-|
G|-2---2---2-2---2---2---2-2--2-|
D|-2---2---2-2---0---0---0-0--0-|
A|-0---0---0-0------------------|
E|------------------------------|

Verse

e|------------------------------|
B|------------------------------|
G|-5---5---5-5---5---5---5-5--5-|
D|-7---7---7-7---7---7---7-7--7-|
A|-7---7---7-7---5---5---5-5--5-|
E|-5---5---5-5------------------|

Prechorus

e|---------------------------------------------------|
B|---------------------------------------------------|
G|-----0-----0-----0-----0-----0-----0-----0-----0---|
D|---3-----3-----3-----3-----4-----4-----4-----4-----|
A|---------------------------------------------------|
E|-1-----1-----1-----1-----2-----2-----2-----2-------|

Chorus
[ Tab from: http://www.guitartabs.cc/tabs/f/foo_fighters/doa_tab_ver_5.html ]
e|-----------------------------------------------------------------|
B|-----------------------------------------------------------------|
G|-----------------------------------------------------------------|
D|-7-7-7-7-7-7-7-7-4-4-4-4-4-4-4-4-7-7-7-7-7-7-7-7-4-4-4-4-4-4-4-4-|
A|-7-7-7-7-7-7-7-7-7-7-7-7-7-7-7-7-7-7-7-7-7-7-7-7-7-7-7-7-7-7-7-7-|
E|-5-5-5-5-5-5-5-5-5-5-5-5-5-5-5-5-5-5-5-5-5-5-5-5-5-5-5-5-5-5-5-5-|

e|-----------------------------------------------------------------|
B|-----------------------------------------------------------------|
G|-7-7-7-7-7-7-7-7-----------------7-7-7-7-7-7-7-7-----------------|
D|-7-7-7-7-7-7-7-7-7-7-7-7-7-7-7-7-7-7-7-7-7-7-7-7-7-7-7-7-7-7-7-7-|
A|-5-5-5-5-5-5-5-5-5-5-5-5-5-5-5-5-5-5-5-5-5-5-5-5-5-5-5-5-5-5-5-5-|
E|-----------------7-7-7-7-7-7-7-7-----------------7-7-7-7-7-7-7-7-|

Post-Chorus

e|-----------|
B|-----------|
G|-----------|
D|-7---------|
A|-7---------|
E|-5\(4)/5---|

Bridge

e|---------------------------|
B|---------------------------|
G|-9-9-7--9-7--5-5--5-5--5---|
D|-9-9-9--9-9--7-7--7-7--7---|
A|-7-7-7--7-7--7-7--7-7--7---|
E|-------------5-5--3-5--3---|

Outro

e|---------------------------|
B|---------------------------|
G|-------------7-7--5-7--5---|
D|-7-7-5--7-5--7-7--7-7--7---|
A|-7-7-7--7-7--5-5--5-5--5---|
E|-5-5-5--5-5----------------|


| /  slide up
| \  slide down
| h  hammer-on
| p  pull-off
| ~  vibrato
| +  harmonic
| x  Mute note
=========================================================================
Comments