Foo Fighters - Doa Chords & Tabs

 

Doa Chords & Tabs

Foo Fighters Chords & Tabs

Version: 3 Type: Tab 0 ratings
1 star 2 stars 3 stars 4 stars 5 stars
comments

Doa Tab

This is my tab of DOA the best song in my opinon. It might be
wrong but I love playin it and it sounds right to me and also I cant take full
credit for this for I changed it up from the last tab.Foo Smily out.

INTRO/VERSE
e|---------------------------------|
b|---------------------------------|
g|---5-5-5-5--5-5-5--5-5-----------|
d|---------------------------------|
a|------------5-5-5--5-5-----------|
E|---5-5-5-5-----------------------|

[ Tab from: http://www.guitartabs.cc/tabs/f/foo_fighters/doa_tab_ver_3.html ]
CHORUS/ I didnt put the rythem but im sure youll get it
e|------------------------------------------|
b|------------------------------------------|
g|--------------7--------4--------7--------9|
d|-----7--------7--------4--------7--------9|
a|-----7--------5--------2--------5--------7|
E|-----5------------------------------------|


INTERLUDE
e|-------------------------|
b|-------------------------|
g|-------------------------|
d|--2-2-2-2----------------|
a|--2-2-2-2-0--------------|
E|--0-0-0-0-0-5--3~~5~~3---|


OUTRO
e|---------------------|
b|--1h3-3-1--1p0-1-1---|
g|--2-2-2-2--0-0-0-0---|
d|--0-0-0-0--2-2-2-2---|
a|-----------3-3-3-3---|
E|---------------------|

Well that was my first tab for you if you have a ? just PM me
Comments