Foo Fighters - Disenchanted Lullaby Chords & Tabs

 

Disenchanted Lullaby Chords & Tabs

Foo Fighters Chords & Tabs

Version: 3 Type: Tab 0 ratings
1 star 2 stars 3 stars 4 stars 5 stars
comments

Disenchanted Lullaby Tab

#----------------------------------PLEASE NOTE---------------------------------#
#This file is the author's own work and represents their interpretation of the #
#song. You may only use this file for private study, scholarship, or research. #
#------------------------------------------------------------------------------#

Song-Disenchanted Lullaby
Band-Foo Fighters
Album-One by One

Tabbed by Michael Robertson

This is another amazing song courtesy of the foo fighters, this my first full tab so hope you enjoy it :)
I'm pretty sure this is 100% correct and if it isn't... who cares!
It still sound good.
I haven't included the strumming patterns... I thought they were pretty obvious if you've heard the song.


Standard Tuning

Intro and verse (guitar 1)

-------2-------------2-----
-----0---0---------0---0---
---2-------2-----2-------2-
---------------------------
-2-----------0-2-----------
---------------------------

verse (guitar 2)
[ Tab from: http://www.guitartabs.cc/tabs/f/foo_fighters/disenchanted_lullaby_tab_ver_3.html ]
-------------------------
-------------------------
-------------------------
-9-9-7-7-9-7-9-7--------- 
-----------------7-5-----
---------------------5-7-

Played twice then...

---------------------------
---------------------------
---------------------------
-9-9-7-7-9-7-9-7-7-7-9-----
-----------------------7-5-
---------------------------

Chorus

---------2-2-2-2--2-2-2-2-
---------0-0-0-0--0-0-0-0-
---------2-2-2-2--2-2-2-2-
---------1-1-1-1--1-1-1-1-
-0-0-1-2-2-2-2-2--2-2-2-2-
--------------------------

I may be scattered...

---------0-0-0-0-0-0---2-2-2-2-2-2-
---------0-0-0-0-0-0---3-3-3-3-3-3-
---------1-1-1-1-1-1---2-2-2-2-2-2-
---------2-2-2-2-2-2---0-0-0-0-0-0-
-0-2-0---2-2-2-2-2-2---0-0-0-0-0-0-
-------0-0-0-0-0-0-0---0-0-0-0-0-0-

No-one has a fit like I do...

Bridge

Im the only one that fits you...

-2-2-2-2-2-2-0-0-0-0-0-0-2-2-2-2-2-2-
-4-4-4-4-4-4-0-0-0-0-0-0-3-3-3-3-3-3-
-4-4-4-4-4-4-1-1-1-1-1-1-2-2-2-2-2-2-
-4-4-4-4-4-4-2-2-2-2-2-2-0-0-0-0-0-0-
-2-2-2-2-2-2-2-2-2-2-2-2-0-0-0-0-0-0-
-2-2-2-2-2-2-0-0-0-0-0-0-0-0-0-0-0-0-

Repeat 8 times i think
Comments