Foo Fighters - Come Back Chords & Tabs

 

Come Back Chords & Tabs

Foo Fighters Chords & Tabs

Version: 4 Type: Tab 0 ratings
1 star 2 stars 3 stars 4 stars 5 stars
comments

Come Back Tab

   
Tricky song enjoy !!

Foo Fighters
Come Back
One By One
Standard Tuning

x - LH Mute
/ - Slide up
\ - Slide down
h - Hammer-on
p - Pull-off
~ - Vibrato
./. - Repeat last bar 




*INTRO + VERSE*
  Guitar 1 - Distortion (low + growly)
e|----------------------------------|------------------------------------------|
B|----------------------------------|------------------------------------------|
G|----------------------------------|------------------------------------------|
D|-6---6---6---6---6---6---6---x-6--|-4---4---4---4---4------------------------|
A|-4---4---4---4---4---4---4---x-4--|-2---2---2---2---2------------------------|
E|----------------------------------|------------------------------------------|
 									
 Guitar 2 - Distortion (higher tone less growl)				
e|----------------------------------|------------------------------------------|
B|----------------------------------|------------------------------------------|
G|----------------------------------|------------------------------------------|
D|-------------6---6---4---4--------|-------------4---4---4/6------------------|
A|-------------7---7---7---7--------|-------------7---7------7p6---------------|
E|----------------------------------|----------------------------7\------------|
		                 noise comes in (2nd time)			  

(0:43)
e|----------------------------------|------------------------------------------|
B|----------------------------------|------------------------------------------|
G|----------------------------------|------------------------------------------|
D|-6---6---6---6---6---6---6--------|-4---4--4---4---4-------------------------|
A|-4---4---4---4---4---4---4--------|-2---2--2---2---2-------------------------|
E|----------------------------------|------------------------------------------|
 										
 										
e|----------------------------------|------------------------------------------|
B|----------------------------------|------------------------------------------|
G|----------------------------------|------------------------------------------|
D|-------------6---6---4---4--------|-------------4---4---4/6------------------|
A|-------------7---7---7---7--------|-------------7---7-------7p6--------------|
E|----------------------------------|-----------------------------7\-----------|


verse pt.1 x3




*PRE-CHORUS* (1:05)
  Guitar 1+2
e|-----------------------------------------------------------------------------|
B|-----------------------------------------------------------------------------|
G|-2---2---2---2---2---2---2---2-----------------------------------------------|
D|-2---2---2---2---2---2---2---2-----------------------------------------------|
A|-0---0---0---0---0---0---0---0-----------------------------------------------|
E|-----------------------------------------------------------------------------|
	                 

*CHORUS* (1:16) each chord's played more than once, but you listen, and work out the rhythm
e|-------|-------|-0-0-----|-------|
B|-------|-------|-0-0-----|-------|
G|-6---2-|-------|-x-------|-2---4-|
D|-6---2-|-4---6-|-2---2-4-|-2---4-|
A|-4---0-|-4---6-|-2---2-4-|-0---2-|
E|-------|-2---4-|-0---0-2-|-------|


*VERSE* (1:38)
*PRE-CHORUS* (2:31)
*CHORUS* (2:43)


*POST-CHORUS* (3:04)
  Guitar 1
e|-----------------------------------------------------------------------------|
B|-----------------------------------------------------------------------------|
G|-6---6-6-6---4--6---6-6-6-6---4-4---6---6-6-6---4-6---6-6-6-8-8--------------|
D|-6---6-6-6---4--6---6-6-6-6---4-4---6---6-6-6---4-6---6-6-6-8-8--------------|
A|-4---4-4-4---2--4---4-4-4-4---2-2---4---4-4-4---2-4---4-4-4-6-6--------------|
E|-----------------------------------------------------------------------------|
 										
 Guitar 2									
e|-----------------------------------------------------------------------------|
B|-----------------------------------------------------------------------------|
G|-13--13------11-10------------8-----6-----------8----------------------------|
D|-x---x-------x--x-------------x-----x-----------x-----6----------------------|
A|-11--11------9--8-------------6-----4-----------6-----x----------------------|
E|------------------------------------------------------4----------------------|


( ) = 2nd time only
e|-0-0-------0--0------------------|-0--0-------0-0----------------------------|
B|-0-0-------0--0------------------|-0--0-------0-0-----------7----------------|
G|-x-x-------x--x------------------|-x--x-------x-x---------4-6-4-(2)----------|
D|-2-2-2-2---2--2-2--2-2---2-2-2-2-|-2--2-2-2---2-2-2--2-2--4-4-4-(2)----------|
A|-2-2-2-2---2--2-2--2-2---2-2-2-2-|-2--2-2-2---2-2-2--2-2--2---2-(0)----------|
E|-0-0-0-0---0--0-0--0-0---0-0-0-0-|-0--0-0-0---0-0-0--0-0---------------------|
 										 	
 										 	
e|------------------------|----------------------------------------------------|
B|---------------------------------|-------------------------------------------|
G|-13--------11-9------------------|-11/4--------------------------------------|
D|-x---------x--x------------------|-x--x------------------(6-4-2-7~-6~-4~-2~)-|
A|-11--------9--7------------------|-9-/2--------------------------------------|
E|---------------------------------|-------------------------------------------|


*BRIDGE* (3:36)
  Guitar 3 (acoustic)
e|---------------|-----------------|----------------|-------------------|
B|---------------|-----------------|----------------|-------------------|
G|---------------|-----------------|----------------|-------------------|
D|-----6---------|--6---6----------|--6---6---------|--6---6------------|
A|-----4---9---4-|--4---7---9---4--|--4---7---9---4-|--4---7---9---4----|
E|---------7---2-|----------7---2--|----------7---2-|----------7---2----|
 |									|
 |Guitar 4 (acoustic)							|
e|---------------|-----------------|----------------|-------------------|
B|---------------|-----------------|----------------|-------------------|
G|---------------|-----------------|----------------|-------------------|
D|-[6]-----------|-----------------|----------------|----------------4/6|
A|-[4]-----------|-----------------|----------------|-------------------|
E|---------------|-----------------|----------------|-------------------|
[ ] = Piano arr. Guitar

(3:57)
e|------------------|-------------------|---------------|----------------------|
B|------------------|-------------------|---------------|----------------------|
G|------------------|-------------------|---------------|----------------------|
D|--6--6------------|--6---6------------|--6---6--------|--6---6---------------|
A|--4--7---9---4----|--4---7---9---4----|--4---7---9--4-|--4---7----9---4------|
E|---------7---2----|----------7---2----|----------7--2-|-----------7---2------|
 									           
 									           
e|------------------|-------------------|-------------------|------------------|
B|------------------|-------------------|-------------------|----5h7-5---------|
G|--4h6-------------|--4h6--------------|--4h6-----8---6----|4h6--------8---6--|
D|---------------4/6|----------------4/6|----------------4/6|------------------|
A|------------------|-------------------|-------------------|------------------|
E|------------------|-------------------|-------------------|------------------|


(4:19)
e|----------------------------------|--------------------------------------|
B|----------------------------------|--------------------------------------|
G|----------------------------------|--------------------------------------|
D|-6-6-6-6-6-6-6-6------------------|-6-6-6-6-6-6-6-6----------------------|
A|-4-4-4-4-4-7-7-7--9-9-9-9-9-4-4-4-|-4-4-4-4-4-7-7-7--9-9-9-9-9-4-4-4-----|
E|------------------7-7-7-7-7-2-2-2-|------------------7-7-7-7-7-2-2-2-----|
 |\________________________________p.m___________________________________/ |
 |									   |
e|----------------------------------|---------------------7----------------|
B|-4h5---4-5/7----------------------|-4h5--------------5h7-----------------|
G|-----4------------6---------------|-----4--------------------------------|
D|----------------------------------|-------6------------------------------|
A|----------------------------------|--------------------------------------|
E|----------------------------------|--------------------------------------|
 |									   |
 |Guitar 1 (distortion off)						   |
e|----------------------------------|--------------------------------------|
B|-4-5-----5--------4-5-------------|-4-5-----5--------4-5-----------------|
G|-----4------------------4-6-------|-----4------------------4-6-----------|
D|----------------------------------|--------------------------------------|
A|----------------------------------|--------------------------------------|
E|----------------------------------|--------------------------------------|

[ Tab from: http://www.guitartabs.cc/tabs/f/foo_fighters/come_back_tab_ver_4.html ]
(4:30)
e|----------------------------------|--------------------------------------|
B|----------------------------------|--------------------------------------|
G|----------------------------------|--------------------------------------|
D|-6-6-6-6-6-6-6-6------------------|-6-6-6-6-6-6-6-6----------------------|
A|-4-4-4-4-4-7-7-7--9-9-9-9-9-4-4-4-|-4-4-4-4-4-7-7-7--9-9-9-9-9-4-4-4-----|
E|------------------7-7-7-7-7-2-2-2-|------------------7-7-7-7-7-2-2-2-----|
 |\________________________________p.m___________________________________/ |
 |									   |
e|--------------7-------------------|--------------------------------------|
B|-----------5h7--------------------|---------------5-/7~------------------|
G|----------------------------------|-----------6--------------6~----------|
D|----------------------------------|--------------------------------------|
A|----------------------------------|--------------------------------------|
E|----------------------------------|--------------------------------------|
 |									   |
 |Guitar 1							           |
e|----------------------------------|--------------------------------------|
B|-4-5-----5--------4-5-------------|-4-5-----5--------4-5-----------------|
G|-----4------------------4-6-------|-----4------------------4-6-----------|
D|----------------------------------|--------------------------------------|
A|----------------------------------|--------------------------------------|
E|----------------------------------|--------------------------------------|


(4:41)
e|------------------------------------|------------------------------------|
B|------------------------------------|------------------------------------|
G|------------------------------------|------------------------------------|
D|-6-6-6-6---6-6-6-6------------------|-6-6-6-6-6-6-6-6--------------------|
A|-4-4-4-4---4-7-7-7--9-9-9-9-9-4-4-4-|-4-4-4-4-4-7-7-7--9-9-9-9-9-4-4-4---|
E|--------------------7-7-7-7-7-2-2-2-|------------------7-7-7-7-7-2-2-2---|
 |\________________________________p.m___________________________________/ |
 |									   |
e|------------------------------------|------------------------------------|
B|-4-5---4-4/7-5----------5---7-------|-------5h7-5------4-----------------|
G|-----4-----------4h6----------------|-6-----------6----------6-----------|
D|------------------------------------|------------------------------------|
A|------------------------------------|------------------------------------|
E|------------------------------------|------------------------------------|
 |									   |
 |Guitar 1							           |
e|------------------------------------|------------------------------------|
B|-4-5-----5--------4-5---------------|-4-5-----5--------4-5---------------|
G|-----4------------------4-6---------|-----4------------------4-6---------|
D|------------------------------------|------------------------------------|
A|------------------------------------|------------------------------------|
E|------------------------------------|------------------------------------|
 |									   |
 |Guitar 2								   |
e|------------------------------------|------------------------------------|
B|------------------------------------|------------------------------------|
G|-6---------8------9---------11------|------------------------------------|
D|-x---------x------x---------x-------|---------------./.------------------|
A|-4---------6------7---------9-------|------------------------------------|
E|------------------------------------|------------------------------------|


(4:51)
e|------------------------------------|------------------------------------|
B|------------------------------------|------------------------------------|
G|------------------------------------|------------------------------------|
D|-6-6-6-6---6-6-6-6------------------|-6-6-6-6-6-6-6-6--------------------|
A|-4-4-4-4---4-7-7-7--9-9-9-9-9-4-4-4-|-4-4-4-4-4-7-7-7--9-9-9-9-9-4-4-4---|
E|--------------------7-7-7-7-7-2-2-2-|------------------7-7-7-7-7-2-2-2---|
 |\________________________________p.m___________________________________/ |
 |									   |
e|------------------------------------|-9-7-4-----7-4-0--0-----0h2-0-------|
B|--------------------4~--7---------9-|------------------------------4-0---|
G|------------------------------------|------------------------------------|
D|------------------------------------|------------------------------------|
A|------------------------------------|------------------------------------|
E|------------------------------------|------------------------------------|
 |									   |
 |Guitar 1							           |
e|------------------------------------|------------------------------------|
B|-4-5-----5--------4-5---------------|-4-5-----5--------4-5---------------|
G|-----4------------------4-6---------|-----4------------------4-6---------|
D|------------------------------------|------------------------------------|
A|------------------------------------|------------------------------------|
E|------------------------------------|------------------------------------|
 |									   |
 |									   |
e|------------------------------------|------------------------------------|
B|------------------------------------|------------------------------------|
G|------------------------------------|------------------------------------|
D|--------------./.-------------------|----------------./.-----------------|
A|------------------------------------|------------------------------------|
E|------------------------------------|------------------------------------|



(5:02)
e|------------------------------------|------------------------------------|
B|------------------------------------|------------------------------------|
G|------------------------------------|------------------------------------|
D|-6-6-6-6-6-6-6-6--------------------|-6-6-6-6-6-6-6-6--------------------|
A|-4-4-4-4-4-7-7-7----9-9-9-9-9-4-4-4-|-4-4-4-4-4-7-7-7--9-9-9-9-9-4-4-4---|
E|--------------------7-7-7-7-7-2-2-2-|------------------7-7-7-7-7-2-2-2---|
 |\________________________________p.m___________________________________/ |
 |									   |
e|--------------------7---------------|------------------------------------|
B|---4-5-----------5h7----------------|------------------------------------|
G|-6----------------------------------|------------------------------------|
D|------------------------------------|------------------------------------|
A|------------------------------------|------------------------------------|
E|------------------------------------|------------------------------------|
 |									   |
 |Guitar 1							           |
e|------------------------------------|------------------------------------|
B|-4-5-----5--------4-5---------------|-4-5-----5--------------------------|
G|-----4------------------4-6---------|-----4------------------------------|
D|------------------------------------|------------------------------------|
A|------------------------------------|------------------------------------|
E|------------------------------------|------------------------------------|
 |									   |
 |									   |
e|------------------------------------|------------------------------------|
B|-9-9-9-9---9---9--------------------|-9-9-9-9---9---9--------------------|
G|-x-x-x-x---x---x--------------------|-x-x-x-x---x---x--------------------|
D|-6-6-6-6---6---6--------------------|-6-6-6-6---6---6----------4h6/9~----|
A|------------------------------------|------------------------------------|
E|------------------------------------|------------------------------------|


(5:13)
  G3
e|------------------------------------|
B|------------------------------------|
G|------------------------------------|
D|-6-6-6-6-6-6-6-6--------------------|
A|-4-4-4-4-4-7-7-7----9-9-9-9-9-4-4-4-|
E|--------------------7-7-7-7-7-2-2-2-|
 |\_______________p.m_______________/ | x2
 |           			      |
 |G2				      |
e|------------------------------------|
B|-9-9-9-9---9---9--------------------|
G|-x-x-x-x---x---x---------------(4h6)|
D|-6-6-6-6---6---6------------(4h6)---|
A|------------------------------------|
E|------------------------------------|
( ) = 1st time only


(5:24)
  Guitar 1 (distortion on)
e|---------------------------|--------------|-----------------|---------------|
B|---------------------------|--------------|-----------------|---------------|
G|-6----4----------2---------|-6--4----2----|-6---4-----2-----|--6---4---2----|
D|-6----4----------2-------4-|-6--4----2--4-|-6---4-----2---4-|--6---4---2---4|
A|-4----2----------0-------4-|-4--2----0--4-|-4---2-----0---4-|--4---2---0---4|
E|-------------------------2-|------------2-|---------------2-|--------------2|
 |									      | x2
 |Guitar 2								      |
e|---------------------------|--------------|-----------------|---------------|
B|(9)played more than once---|--------------|-----------------|---------------|
G|(x)------------------------|--------------|-----------------|---------------|
D|(6)------------------------|-----(./.)----|------(./.)------|-----(./.)-----|
A|---------------------------|--------------|-----------------|---------------|
E|---------------------------|--------------|-----------------|---------------|
( ) = 2nd time only


*CHORUS* 
*POST-CHORUS* (Guitar 1 only) Repeat to fade.
Comments