Foo Fighters - Come Back Chords & Tabs

 

Come Back Chords & Tabs

Foo Fighters Chords & Tabs

Version: 1 Type: Tab 1 rating
1 star 2 stars 3 stars 4 stars 5 stars
comments

Come Back Tab

Foo Fighters - Come Back
Tabbed by Philetus

e||---------------------------------------------------------------------------------------||
B||---------------------------------------------------------------------------------------||
G||------------9--9-----------------11-11-------------------------------------------------||
D||--11-11-11--9--9---------9--9--9-11-11-------------------------------------------------||
A||--11-11-11--7--7--7h9-9--9--9--9--9--9--9h11-7p6---------------------------------------||
E||---9--9--9---------------7--7--7------------------9------------------------------------||
(x8)

e||---------------------------------------------------------------------------------------||
B||---------------------------------------------------------------------------------------||
G||------------9--9------x----------11-11-------------------------------------------------||
D||--11-11-11--9--9------x--9--9--9-11-11-------------------------------------------------||
A||--11-11-11--7--7--7h9-x--9--9--9--9--9--9h11-7p6---------------------------------------||
E||---9--9--9------------x--7--7--7------------------9------------------------------------||
(x1)

e||---------------------------------------------------------------------------------------||
B||---------------------------------------------------------------------------------------||
G||------------9--9-----------------11-11-------------------------------------------------||
D||--11-11-11--9--9---------9--9--9-11-11-------------------------------------------------||
A||--11-11-11--7--7--7h9-9--9--9--9--9--9--9h11-7p6---------------------------------------||
E||---9--9--9---------------7--7--7------------------9------------------------------------||
(x3)


e||------------------------|
B||------------------------|
G||----9----8----6----4----|
D||----x----x----x----x----|
A||----7----6----4----2----|
E||------------------------|
(x2)

e||--------------------------------------------------|
B||--------------------------------------------------|
G||----6-6-6--6/9-9-------6-6-6--6/9-9---------------|
D||----6-6-6--6/9-9--6-6--6-6-6--6/9-9--9-9----------|
A||----4-4-4--4/7-7--6-6--4-4-4--4/7-7--9-9----------|
E||------------------4-4----------------7-7----------|
(x4)

e||---------------------------------------------------------------------------------------||
B||---------------------------------------------------------------------------------------||
G||------------9--9-----------------11-11-------------------------------------------------||
D||--11-11-11--9--9---------9--9--9-11-11-------------------------------------------------||
A||--11-11-11--7--7--7h9-9--9--9--9--9--9--9h11-7p6---------------------------------------||
E||---9--9--9---------------7--7--7------------------9------------------------------------||
(x8)

e||---------------------------------------------------------------------------------------||
B||---------------------------------------------------------------------------------------||
G||------------9--9------x----------11-11-------------------------------------------------||
D||--11-11-11--9--9------x--9--9--9-11-11-------------------------------------------------||
A||--11-11-11--7--7--7h9-x--9--9--9--9--9--9h11-7p6---------------------------------------||
E||---9--9--9------------x--7--7--7------------------9------------------------------------||
(x2)

e||---------------------------------------------------------------------------------------||
B||---------------------------------------------------------------------------------------||
G||------------9--9-----------------11-11-------------------------------------------------||
D||--11-11-11--9--9---------9--9--9-11-11-------------------------------------------------||
A||--11-11-11--7--7--7h9-9--9--9--9--9--9--9h11-7p6---------------------------------------||
E||---9--9--9---------------7--7--7------------------9------------------------------------||
(x2)


e||------------------------|
B||------------------------|
G||----9----8----6----4----|
D||----x----x----x----x----|
A||----7----6----4----2----|
E||------------------------|
(x2)

e||--------------------------------------------------|
B||--------------------------------------------------|
G||----6-6-6--6/9-9-------6-6-6--6/9-9---------------|
D||----6-6-6--6/9-9--6-6--6-6-6--6/9-9--9-9----------|
A||----4-4-4--4/7-7--6-6--4-4-4--4/7-7--9-9----------|
E||------------------4-4----------------7-7----------|
(x4)

e||---------------------------------------------------------------------------------------|
B||---------------------------------------------------------------------------------------|
G||---13--13-13--13--13/9--9--9-9-9-9-9--9/6-6-6-x----------------------------------------|
D||---13--13-13--13--13/9--9--9-9-9-9-9--9/6-6-6-x--6-6-6-6-6-6---------------------------|
A||---11--11-11--11--11/7--7--7-7-7-7-7--7/4-4-4-x--6-6-6-6-6-6---------------------------|
E||----------------------------------------------x--4-4-4-4-4-4---------------------------|

e||---------------------------------------------------------------------------------------|
B||---------------------------------------------------------------------------------------|
G||---13-13-13-13--13/9-9-9-9-9-9-9--9/4-4-4-4-4-4-x------0--4----------------------------|
D||----x--x--x--x---x-x-x-x-x-x-x-x--x-x-x-x-x-x-x-x---4--2--4----------------------------|
A||---11-11-11-11--11/7-7-7-7-7-7-7--7/2-2-2-2-2-2-x---4--2--2----------------------------|
E||------------------------------------------------x---2--0-------------------------------|
[ Tab from: http://www.guitartabs.cc/tabs/f/foo_fighters/come_back_tab.html ]
e||---------------------------------------------------------------------------------------|
B||---------------------------------------------------------------------------------------|
G||---13--13-13--13--13/9--9--9-9-9-9-9--9/6-6-6-x----------------------------------------|
D||---13--13-13--13--13/9--9--9-9-9-9-9--9/6-6-6-x--6-6-6-6-6-6---------------------------|
A||---11--11-11--11--11/7--7--7-7-7-7-7--7/4-4-4-x--6-6-6-6-6-6---------------------------|
E||----------------------------------------------x--4-4-4-4-4-4---------------------------|

e||---------------------------------------------------------------------------------------|
B||---------------------------------------------------------------------------------------|
G||---13-13-13-13--13/9-9-9-9-9-9-9--9/4-4-4-4-4-4-x------0--4----------------------------|
D||----x--x--x--x---x-x-x-x-x-x-x-x--x-x-x-x-x-x-x-x---4--2--4--7-------------------------|
A||---11-11-11-11--11/7-7-7-7-7-7-7--7/2-2-2-2-2-2-x---4--2--2--7(let ring)---------------|
E||------------------------------------------------x---2--0-----5-------------------------|

e||---------------------------------------------------------------------------------------|
B||---------------------------------------------------------------------------------------|
G||---------------------------------------------------------------------------------------|
D||---------------------------------------------------------------------------------------|
A||----7------6------4-------------7------6------4----------------------------------------|
E||-------------------------7---------------------------7---------------------------------|

e||----4----4--------7----2--------------|
B||----6----4--------7----2--------------|
G||----6----4--------7----3--------------|
D||----6----6--------9----2--------------|
A||----4----6--------9----4--------------|
E||----x----4--------7----2--------------|
(x4)

e||---------------4--------2----2-------------|
B||---------------4--------2----2-------------|
G||---------4h6---6--------4----3-------------|
D||-----3/6-------6--------4----4-------------|
A||---------------x--------x----x-------------|
E||---------------x--------x----x-------------|
(x3)

e||---------------4---------2----2-------------|
B||---------------4-7h9p7-7-2----2-------------|
G||---------4h6---6---------4----3-------------|
D||-----3/6-------6---------4----4-------------|
A||---------------x---------x----x-------------|
E||---------------x---------x----x-------------|



This next lead part is covered by a previous riff
that leads into {x 9 11 11 x x} power chord
just listen to it but if playing with one guitar just go with the lead

Lead
e||---------------------------------------------------------------------------------------|
B||-------------------------------------------------------------------------11------------|
G||----------9-8-8h9/11---------------9-8-8h9/11-----------------------9/12---------------|
D||-----9-11-------------9-11----9-11-------------9-11--9h11-9-8--------------------------|
A||---------------------------------------------------------------------------------------|
E||---------------------------------------------------------------------------------------|


e||----------------------------------------------------------------------------------------|
B||----------------------------------------------------------------------------------------|
G||-------9-8-8h9/11--------------------8h9-9/11----------------------------9h11-----------|
D||--9-11-------------9-11------9h11-------------9-11-9h11-9-8--9-9/11-9h11------9-11--9-8-|
A||----------------------------------------------------------------------------------------|
E||----------------------------------------------------------------------------------------|

e||----------------------------------------------------------------------------------------|
B||------------------------9---12p9-11p9-7-------------------------------------------------|
G||-------9-8-8h9/11-------------------------9--8h9-9/11-9-8h9p8--------9-8-8h9/11---------|
D||--9-11-------------9-11---------------------------------------9-9/11-------------9-11---|
A||----------------------------------------------------------------------------------------|
E||----------------------------------------------------------------------------------------|


Backup
e||------------------------------------------------------------------------------|	\
B||------------------------------------------------------------------------------|	 |
G||------------------------------------------------------------------------------|	 |
D||----------9-------------------------9h11--------------------------------------|	 |
A||-----9h11----------------------9h11-------------------------------------------|	 |
E||------------------------------------------------------------------------------|	 |
											 |
Lead											 |
e||-----------------------------------------------9------------------------------|	 |
B||-----------------------------------------12--9--------------------------------|	 |
G||-------9-8-8h9/11----------------9-8-8h9--------------------------------------|	 |
D||--9-11-------------9-11-----9-11----------------------------------------------|	 |
A||------------------------------------------------------------------------------|	 |
E||------------------------------------------------------------------------------|	/


previous riff again by the backup followed by 


{x 9 11 11 x x} power chord


silence

e||-----------------------2---------------------------------------------------------------|
B||-----------------------2---------------------------------------------------------------|
G||-----6-----4-----------3---------------------------------------------------------------|
D||-----6-----4-----7-----2-----(over and over)-------------------------------------------|
A||-----4-----2-----7-----4---------------------------------------------------------------|
E||-----------------5-----2---------------------------------------------------------------|
(x8)

{x 4 6 6 x x} power chord until the end



I would write bass lines but I'm lazy,
someone else can accept the challenge

I think most of this should be accurate.
Comments