Foo Fighters - Cold Day In The Sun Chords & Tabs

 

Cold Day In The Sun Chords & Tabs

Foo Fighters Chords & Tabs

Version: 1 Type: Tab 0 ratings
1 star 2 stars 3 stars 4 stars 5 stars
comments

Cold Day In The Sun Tab

   
Song:Cold day in the sun
Band:foo fighters
Tabbed by :G.Wiris
E-mail:unknownkid2@hotmail.com

intro

e                     3x  just 2x 
e||---------------------|-----------|---------------------------3-3-3--||
B||---------------------|-----------|---------------------------3-3-3--||
G||------0-----0-----0--|----0-0----|------0-----0-----0-----0--0-0-0--||
D||----0-----0-----0----|----0-0----|----0-----0-----0-----0----0-0-0--||
A||--3------------------|-----------|--------3------------------2-2-2--||
E||--------2-----3------|--3-----3--|--1-----------2-----3------3-3-3--||


Verse
           2x
e||--3--3--3--|--3--3--3--3--3--3--3--||
B||--3--3--3--|--3--3--3--3--3--3--3--||
G||--0--0--0--|--0--0--0--0--0--0--0--||
D||--2--0--0--|--2--0--0--0--2--0--0--||
A||--3--x--2--|--3--x--2--x--3--x--2--||
E||-----2--3--|-----2--3--1-----2--3--||

[ Tab from: http://www.guitartabs.cc/tabs/f/foo_fighters/cold_day_in_the_sun_tab.html ]
Chorus
        2x                   2x
e||--0--2--|--0--2--3--2--0--2--||
B||--1--3--|--3--3--3--3--3--3--||
G||--2--2--|--2--2--2--2--2--2--||
D||--2--0--|--0--0--0--0--0--0--||
A||--0-----|--------------------||
E||--------|--------------------||


Bridge
             2x /   into solo   \\
e||--3--0--0--2-|--3-3-3--2-2-2--||
B||--3--1--0--3-|--3-3-3--3-3-3--||
G||--0--2--0--2-|--0-0-0--2-2-2--||
D||--0--2--2--0-|--2-2-2--0-0-0--||
A||--2--0--2----|--3-3-3---------||
E||--3-----0----|----------------||



Solo 

e||-----------------------------------------------||
B||-----------------------------------------------||
G||-----------------------------------------------||
D||------5-5-7b-5---5~--7-8-7-8-7-5---5-4---------||
A||--5-7----------7-----------------7-----7-5-----||
E||-----------------------------------------------||

e||-----------------------------------------------||
B||-----------------------------------------------||
G||------7---9-7---7~-9b-9-7-9-7-5-7-5-4-5-4------||
D||--7/9---9-----9---------------------------0----||
A||-----------------------------------------------||
E||-----------------------------------------------||

Chords behind solo are the same used in verses.

i hope you enjoy my first tab. 
if you have any questions 
send me an e-mail (_) (:p)
Comments