Foo Fighters - Butterflies Chords & Tabs

 

Butterflies Chords & Tabs

Foo Fighters Chords & Tabs

Version: 1 Type: Tab 0 ratings
1 star 2 stars 3 stars 4 stars 5 stars
comments

Butterflies Tab

   
"Butterflies" by Foo Fighters
Tabbed by: CopperForever@aol.com

Verse:
  A    D    A    D    A    G
|-0000-2222-0000-2222-0000-3333-3333-|
|-2222-3333-2222-3333-2222-0000-0000-|
|-2222-2222-2222-2222-2222-0000-0000-|
|-2222-0000-2222-0000-2222-0000-0000-|
|-0000------0000------0000-2222-2222-|
|--------------------------3333-3333-|


  F#E F#     E F#   E  F#E F#     E F#E
|---------------------0---------------------|
|---------------------0------------------0--|
|-------------------1-----------------1---0-|
|-4-4-4-44-4-4-4-44-2--4-4-4-44-4-4-4-2-----|
|-4-4-4-44-4-4-4-44-2--4-4-4-44-4-4-4-2-----|
|-2-0-2-22-2-0-2-22-0--2-0-2-22-2-0-2-0-----|
  I'm all sick for you...

  F#E F#     E F#   E   F#E F#     E F# F
|---------------------00-----------------------------------|
|---------------------00-----------------------------------|
|-------------------1--------------------------------------|
|-4-4-4-44-4-4-4-44-2---4-4-4-44-4-4-4-3333333333333333----|
|-4-4-4-44-4-4-4-44-2---4-4-4-44-4-4-4-3333333333333333----|
|-2-0-2-22-2-0-2-22-0---2-0-2-22-2-0-2-1111111111111111----|

  A5       D5       A5       D5       A5       G5
|---------------------------------------------------------------|
|---------------------------------------------------------------|
|----------77777777----------77777777---------------------------|
|-77777777-77777777-77777777-77777777-77777777-5555555555555555-|
|-77777777-55555555-77777777-55555555-77777777-5555555555555555-|
|-55555555----------55555555----------55555555-3333333333333333-|
  I died for some rare pelicans...
[ Tab from: http://www.guitartabs.cc/tabs/f/foo_fighters/butterflies_tab.html ]
  F#EF#      EF#    E F#GF E F#GFE F#EF#      EF#    E F#GF E F#GFE
|-------------------------------------------------------------------|
|-------------------------------------------------------------------|
|-------------------------------------------------------------------|
|-4424-444-4424-444-22-453-22-4532-4424-444-4424-444-22-453-22-4532-|
|-4423-444-4424-444-22-453-22-4532-4424-444-4424-444-22-453-22-4532-|
|-2202-222-2202-222-00-231-00-2310-2202-222-2202-222-00-231-00-2310-|
  I'm all sick for you...

 F#EF#       EF#    E F#GF E F#GFE F#EF#      EF#    F
|---------------------------------------------------------------------|
|---------------------------------------------------------------------|
|---------------------------------------------------------------------|
|-4424-444-4424-444-22-453-22-4532-4424-444-4424-444-3333333333333333-|
|-4424-444-4424-444-22-453-22-4532-4424-444-4424-444-3333333333333333-|
|-2202-222-2202-222-00-231-00-2310-2202-222-2202-222-1111111111111111-|
  

Solo:
 A5            D5         A5          D5          A5
|--------------------------------------------------------------|
|--------------7b-7b-7b-7b------------7b-7b-7b-7b--------------|
|-9b-9b-9b-9b-------------9b-9b-9b-9b-------------9b-9b-9b-9b--|
|--------------------------------------------------------------|
|--------------------------------------------------------------|
|--------------------------------------------------------------|

  G5
|----------------------|
|-8b-8-8b-8-8b-8-8b-8b-|
|----------------------|
|----------------------|
|----------------------|
|----------------------|

  A5             D5             A5           D5              A5
|------------------------------------------------------------------------|
|-9b-9b-9b-9b-9b-----------------9b-9b-9b-9b-----------------9b-9b-9b-9b-|
|----------------11b-11b-11b-11b-------------11b-11b-11b-11b-------------|
|------------------------------------------------------------------------|
|------------------------------------------------------------------------|
|------------------------------------------------------------------------|

  G5
|-------------------|
|-11b-11p9h11----9--|
|-------------11----|
|-------------------|
|-------------------|
|-------------------|
Comments