Foo Fighters - Breakout Chords & Tabs

 

Breakout Chords & Tabs

Foo Fighters Chords & Tabs

Version: 1 Type: Tab 2 ratings
1 star 2 stars 3 stars 4 stars 5 stars
comments

Breakout Tab

#----------------------------------PLEASE NOTE---------------------------------#
#This file is the author's own work and represents their interpretation of the #
#song. You may only use this file for private study, scholarship, or research. #
#------------------------------------------------------------------------------#
#                                                                              #

From: David Anderson @ "puffpuff182@madasafish.com"

Song Title: Breakout
Artist: Foo Fighters
Album: There is nothing left to lose

Hi. This is my first ever attempt at tabbing a song so please bare with me. If you have any queries, comments or changes please contact me at my e-mail address at the top of the page. O.K. here it goes!

Riff 1
w/phase

e-----------------------------------------------------------
B-----------------------------------------------------------
G---4-4-4-4-4-4---9-9-9-9-9-9---6-6-6-6-6-6---5-5-5-5-5-5---    
D---4-4-4-4-4-4---9-9-9-9-9-9---6-6-6-6-6-6---5-5-5-5-5-5--- X4 (after x2 w/distortion
A---2-2-2-2-2-2---7-7-7-7-7-7---4-4-4-4-4-4---3-3-3-3-3-3---             on 2nd guitar)
E-----------------------------------------------------------

both guitars w/distortion
									
e-----------------------------------------------------------  
B-----------------------------------------------------------  
G---4-4-4-4-4-4-----------------4-4-4-4-4-4-----------------	
D---4-4-4-4-4-4---5-5-5-5-5-5---4-4-4-4-4-4---2-2-2-2-2-2---  
A---2-2-2-2-2-2---5-5-5-5-5-5---2-2-2-2-2-2---2-2-2-2-2-2---      
E-----------------3-3-3-3-3-3-----------------0-0-0-0-0-0---

e-----------------------------------------------------------
B-----------------------------------------------------------
G-----------------------------------------------------------
D---5-5-5-5-5-5---2-2-2-2-2-2---5-5-5-5-5-5---2-2-2-2-2-2---
A---5-5-5-5-5-5---2-2-2-2-2-2---5-5-5-5-5-5---2-2-2-2-2-2---
E---3-3-3-3-3-3---0-0-0-0-0-0---3-3-3-3-3-3---0-0-0-0-0-0---

e-----------------------------------------------------------  
B-----------------------------------------------------------  
G---4-4-4-4-4-4-----------------4-4-4-4-4-4-----------------	
D---4-4-4-4-4-4---5-5-5-5-5-5---4-4-4-4-4-4---2-2-2-2-2-2---  
A---2-2-2-2-2-2---5-5-5-5-5-5---2-2-2-2-2-2---2-2-2-2-2-2---      
E-----------------3-3-3-3-3-3-----------------0-0-0-0-0-0---

e-----------------------------------------------------------
B-----------------------------------------------------------
G-----------------------------------------------------------
D---5-5-5-5-5-5---2-2-2-2-2-2---5-5-5-5-5-5---2-2-2-2-2-2---
A---5-5-5-5-5-5---2-2-2-2-2-2---5-5-5-5-5-5---2-2-2-2-2-2---
E---3-3-3-3-3-3---0-0-0-0-0-0---3-3-3-3-3-3---0-0-0-0-0-0---

rhythm - riff3
e-----------------------------------------------------------
B-----------------------------------------------------------
G---4-4-4-4-4-4-4-4-4-4-4-4---------------------------------
D---4-4-4-4-4-4-4-4-4-4-4-4---5-5-5-5-5-5---2-2-2-2-2-2----- X4
A---2-2-2-2-2-2-2-2-2-2-2-2---5-5-5-5-5-5---2-2-2-2-2-2-----
E-----------------------------3-3-3-3-3-3---0-0-0-0-0-0-----

e-----------------------------------------------------------
B-----------------------------------------------------------
G-----------------------------------------------------------
D---5-5-5-5-5-5-5-5-5-5-5-5---2-2-2-2-2-2-2-2-2-2-2-2-------
A---5-5-5-5-5-5-5-5-5-5-5-5---2-2-2-2-2-2-2-2-2-2-2-2-------
E---3-3-3-3-3-3-3-3-3-3-3-3---2-2-2-2-2-2-2-2-2-2-2-2-------

lead - Riff3
e------------------------------------------------------------
B------------------------------------------------------------
G------------------------------------------------------------
D-----------------------4-5-4-2---------------------4-5-4-2--  X2
A---2-2-2-2-2-2-2-2-2-2---------2-2-2-2-2-2-2-2-2-2---------0
E------------------------------------------------------------

[ Tab from: http://www.guitartabs.cc/tabs/f/foo_fighters/breakout_tab.html ]
e-----------------------------------------------------------
B-----------------------------------------------------------
G-----------------------------------------------------------
D---5-5-5-5-5-5-5-5-5-5-5-5---2-2-2-2-2-2-2-2-2-2-2-2-------
A---5-5-5-5-5-5-5-5-5-5-5-5---2-2-2-2-2-2-2-2-2-2-2-2-------
E---3-3-3-3-3-3-3-3-3-3-3-3---0-0-0-0-0-0-0-0-0-0-0-0-------

Riff 1
w/phase and distortion

e-----------------------------------------------------------
B-----------------------------------------------------------
G---4-4-4-4-4-4---9-9-9-9-9-9---6-6-6-6-6-6---5-5-5-5-5-5---    
D---4-4-4-4-4-4---9-9-9-9-9-9---6-6-6-6-6-6---5-5-5-5-5-5--- X2 
A---2-2-2-2-2-2---7-7-7-7-7-7---4-4-4-4-4-4---3-3-3-3-3-3---             
E-----------------------------------------------------------

Now Repeat riff 1 X2 but pamm muting all the notes.

e-----------------------------------------------------------  
B-----------------------------------------------------------  
G---4-4-4-4-4-4-----------------4-4-4-4-4-4-----------------	
D---4-4-4-4-4-4---5-5-5-5-5-5---4-4-4-4-4-4---2-2-2-2-2-2---  
A---2-2-2-2-2-2---5-5-5-5-5-5---2-2-2-2-2-2---2-2-2-2-2-2---      
E-----------------3-3-3-3-3-3-----------------0-0-0-0-0-0---
										X 2( These two  
e-----------------------------------------------------------               sections)
B-----------------------------------------------------------
G-----------------------------------------------------------
D---5-5-5-5-5-5---2-2-2-2-2-2---5-5-5-5-5-5---2-2-2-2-2-2---
A---5-5-5-5-5-5---2-2-2-2-2-2---5-5-5-5-5-5---2-2-2-2-2-2---
E---3-3-3-3-3-3---0-0-0-0-0-0---3-3-3-3-3-3---0-0-0-0-0-0---

e--------------------------------------77777777-------------               
B--------------------------------------77777777-------------
G-----------------------------------------------------------
D---5-5-5-5-5-5---2-2-2-2-2-2-------------------------------
A---5-5-5-5-5-5---2-2-2-2-2-2-------------------------------
E---3-3-3-3-3-3---0-0-0-0-0-0-------------------------------

e------------------------------------------------------------
B------------------------------------------------------------
G---4-4---2-2---6-6--------------4-4---2-2---6-6-------------
D---4-4---2-2---6-6---2-2-2-2-2--4-4---2-2---6-6---2-2-2-2-2- X 4 (after do lead guitar
A---2-2---0-0---4-4---2-2-2-2-2--2-2---0-0---4-4---2-2-2-2-2-        do riff 4)
E---------------------0-0-0-0-0--------------------0-0-0-0-0-

e------------------------------------------------------------
B------------------------------------------------------------
G----11-11--9-9--13-13--------------------------------------- 
D----9--9---7-7--11-11--11-11-11-11-11-11--------------------  X 4
A-----------------------9--9--9--9--9--9---------------------
E------------------------------------------------------------

e-----------------------------------------------------------  
B-----------------------------------------------------------  
G---4-4-4-4-4-4-----------------4-4-4-4-4-4-----------------	
D---4-4-4-4-4-4---5-5-5-5-5-5---4-4-4-4-4-4---2-2-2-2-2-2---  
A---2-2-2-2-2-2---5-5-5-5-5-5---2-2-2-2-2-2---2-2-2-2-2-2---      
E-----------------3-3-3-3-3-3-----------------0-0-0-0-0-0---
										X 2( These two  
e-----------------------------------------------------------               sections)
B-----------------------------------------------------------
G-----------------------------------------------------------
D---5-5-5-5-5-5---2-2-2-2-2-2---5-5-5-5-5-5---2-2-2-2-2-2---
A---5-5-5-5-5-5---2-2-2-2-2-2---5-5-5-5-5-5---2-2-2-2-2-2---
E---3-3-3-3-3-3---0-0-0-0-0-0---3-3-3-3-3-3---0-0-0-0-0-0---

e--------------------------------------------------------------              
B--------------------------------------------------------------
G--------------------------------------------------------------
D---5-5-5-5-5-5---2-2-2-2-2-2---5-5-5-5-5-5---2-2-2-2-2-2------
A---5-5-5-5-5-5---2-2-2-2-2-2---5-5-5-5-5-5---2-2-2-2-2-2------
E---3-3-3-3-3-3---0-0-0-0-0-0---3-3-3-3-3-3---0-0-0-0-0-0------

e------------------------------------------------------------
B------------------------------------------------------------
G---4-4---2-2---6-6--------------4-4---2-2---6-6-------------
D---4-4---2-2---6-6---2-2-2-2-2--4-4---2-2---6-6---2-2-2-2-2- X 4 
A---2-2---0-0---4-4---2-2-2-2-2--2-2---0-0---4-4---2-2-2-2-2-     
E---------------------0-0-0-0-0--------------------0-0-0-0-0-

              
Comments