Foo Fighters - Big Me Chords & Tabs

 

Big Me Chords & Tabs

Foo Fighters Chords & Tabs

Version: 1 Type: Tab 0 ratings
1 star 2 stars 3 stars 4 stars 5 stars
comments

Big Me Tab

   
-------------------------------------------------------------------------------
		foo fighters- Big me
-------------------------------------------------------------------------------

Tabbed by: sam smith

Tuning: standard

  Intro/ Verse

   C            Am7      G/D Gsus4     G/D  F             G/D
e|-----3-3----------3-3----------3--3--------------1--1----------------------|
B|-1-1-1-1-1-1--1-1-1-1-1-0-1-1--1--1-1-0--------1-1--1-1--0-----------------|
G|-0-0-0-0-0-0--2-2-2-2-2-0-0-0--0--0-0-0---2--2---2--2-2--0-----------------|
D|-2-2-----2-2--2-2-----2-0-0-0-------0-0---3-----------3--0-----------------|
A|-3-3-----3-3--0-0-----0---2-2-------2-----3-----------3--------------------|
E|--------------------------3-3-------3--------------------------------------|
[ Tab from: http://www.guitartabs.cc/tabs/f/foo_fighters/big_me_tab.html ]
  Chords 
  C      G      Am7     G/D      Gsus4    F      Gt2   E     C7
e|-3-----3-------3------------------------1-------3--------------------------|
B|-1-----3-------1-------0---------1------1-------0----0-----1---------------|
G|-0-----0-------2-------0---------0------2-------0----1-----3---------------|
D|-2-----0-------2-------0---------0------3-------0----2-----2---------------|
A|-3-----2-------0-----------------2------3-------2----2-----3---------------|
E|-------3-------------------------3------1-------3----0---------------------|


Chorus/ End

   E        F              C                     C7
  Big me to talk about it, I could stand to prove ******

  E         F                                   G                   
  If we can get around it, I know that it's true ******  

         C               Am7     G/D  Gsus4       G/D  F    
  Well I talked about it, carried on, reasons only new ******

     G/D       C      G/D G     F     C
  But it's you.           I fell in to ******
-------------------------------------------------------------------------------
   Continue this but with different lyrics. * = carry on singing the word
   and use hamonies ( I just thought i'd add in the vocal stuff ).
 
   Please note that this work has been written by the Dave Grohl and should
only be used in the correct ways. Thanx. One of my best figured out tabs yet i
may of got a few things wrong but who cares. 
===============================================================================
Comments