Foo Fighters - Big Me Chords & Tabs

 

Big Me Chords & Tabs

Foo Fighters Chords & Tabs

Version: 3 Type: Bass Tab 0 ratings
1 star 2 stars 3 stars 4 stars 5 stars
comments

Big Me Bass Tab

Song: Big Me
Artist: Foo Fighters
Transcribed by: GuitaRach


eyyy. well yes this is my first posted tab boo wah like a wah pedal. well yeah I
couldnt find a good bass tab for this song and was rather frustrated. so since
have the cd that comes with the  guitar tab book that goes through the songs in
slow motion i turned the bass way up and attempted to figure it out. this tab is
not 100% accurate..the parts i couldnt figure out i made up..but all in all it
sounds good and is fun to play so i decided to tab it anyways. its just how I
like to play it. feel free to comment and let me know what you think.

Intro/Verse 
G-----------|----------|------------|----------------|
D-------5-3-|------2-2-|------------|----------------|
A-3--3-----3|-0--0----3|------------|----------------|
E-----------|----------|-3--3--5-5-3|--1-1-1--1-1-1-0|
[ Tab from: http://www.guitartabs.cc/tabs/f/foo_fighters/big_me_btab_ver_3.html ]
Chorus
G----------------|----------------|-----------|---------- -----|
D----------------|----------------|-----------|-------- -------|
A----------------|----------------|-3--3-0-3-3|--3--3-3-3--3--3|
E-0---0-0-0-0-0-0|-1-1-1-1-1-1-1-1|-----------|-------- -------|

G----------------|----------------|-----------|------------|
D----------------|----------------|-----------|------------|
A----------------|----------------|-3--3-0-3-3|--5--5--5--5|
E-0---0-0-0-0-0-0|-1-1-1-1-1-1-1-1|-----------|------------|

repeat verse part one time then
G-----------|--------------|-----------|----------------|
D-------5-3-|-5--5-0-3--3-0|-------5-3-|-5-5-5-5-5-5-5-5|
A-3--3-----3|--------------|-3--3-----3|----------------|
E-----------|--------------|-----------|----------------|

for the 2nd and 4th measures right there it can be either high or low g's (and f
for the 2nd measure too obviously)...i couldnt figure it out and dont really
think it matters either way sounds fine.

and for the end it goes

G-----------|--------------| 3 times
D-------5-3-|-5--5-0-3--3-0|
A-3--3-----3|--------------|
E-----------|--------------|

and just end on C
G--------|
D--------|
A-3------|
E--------|


hope its not too confusing.....=)
Comments