Foo Fighters - Big Me Chords & Tabs

 

Big Me Chords & Tabs

Foo Fighters Chords & Tabs

Version: 2 Type: Bass Tab 0 ratings
1 star 2 stars 3 stars 4 stars 5 stars
comments

Big Me Bass Tab

BIG ME
Foo Fighters

Verses                          
G|-----------------------------------------|
D|-----5-2/5-------------------------------|
A|---3-----------7-------------------------|
E|------------5-----5/3--3-3-3-3---11111111|


Chorus
G-----------------------------------------|
D-----------------------------------------|
A--------------------3333333333333333-----|
E-00000000-11111111-----------------------|

Chorus
G-----------------------------------------|
D-----------------------------------------|
A-----------------------------------------|
E-00000000-11111111--111111111---33333333-|
[ Tab from: http://www.guitartabs.cc/tabs/f/foo_fighters/big_me_btab_ver_2.html ]
Chorus
G-----------------------------------------|
D----5-2/5--------------------------------|
A-3-------------7-------------------------|
E------------5------5/3--3333--111111111--|

Chorus    
G-----------------------------------------|
D-----------------------------------------|
A-333333333-------------------------------|
E------------333333333----11111111--------|
    
   
This one is not originally transcribed by me.  So please don't E-Mail me 
complaints.  If you have Grind, Down In A Hole, Heaven Beside You, Man In The
Box, or We Die Young by Alice In Chains can you E-Mail them to me at:
odin@blvl.igs.net

Comments