Foo Fighters - Aurora Chords & Tabs

 

Aurora Chords & Tabs

Foo Fighters Chords & Tabs

Version: 1 Type: Tab 3 ratings
1 star 2 stars 3 stars 4 stars 5 stars
comments

Aurora Tab

Moderately:124          Intro(only)           (Aurora)
        
  ---------------------------------------------
  ---------------------------------------------
  ------------6----7-------9----------6--7-----
  ---7-6----9---------7------9----7------------
  -0------0------0------0------0---------------
  --------------------------------------------- 2x
  *Echo set for eight note regeneration
  ------------------------------------------------------------------------
  ------------------------------------------------------------------------
  --------9----------------------------7---------9-7-6--------7-9----6----
  -6---7----7---7--9----7---6---9---7-----6----7---------7-6-------9------
  ---7--------0-------0---0---0---0---------0----------0-----7---0--------
  ------------------------------------------------------------------------
  That is it for the intro. I will post the verses and chorus later sense there about eleven
pages long. If you listen to the song you can tell there are about
four guitars being played at the same time. 

[ Tab from: http://www.guitartabs.cc/tabs/f/foo_fighters/aurora_tab.html ]
Comments