Foo Fighters - Another Round Chords & Tabs

 

Another Round Chords & Tabs

Foo Fighters Chords & Tabs

Version: 1 Type: Bass Tab 0 ratings
1 star 2 stars 3 stars 4 stars 5 stars
comments

Another Round Bass Tab

   
-------------------------------------------------------------------------------
			     ANOTHER ROUND - Foo Fighters
-------------------------------------------------------------------------------

Tabbed By : 39/Smooth

Chorus
G|----------------------------|
D|----------------------------|
A|----------------------3--3--|
E|-3--3--5--5--5--0--0--------|

G|----------------------------|
D|----------------------------|
A|----------------------3--3--|
E|-3--3--5--5--5--0--0--------|


Interlude (Harmonica Solo)
G|-------------------------------|
D|-------------------------------|
A|----5-----5---5--5----5--5---5-|
E|-3-----3-----------------------|

G|------------------------------------|
D|------------------------------------|
A|----------3---3--3----3--3---2--0---|
E|-5--3--5----------------------------|
[ Tab from: http://www.guitartabs.cc/tabs/f/foo_fighters/another_round_btab.html ]
G|-------------------------------|
D|-------------------------------|
A|----5-----5---5--5----5--5---5-|
E|-3-----3-----------------------|

G|------------------------------------|
D|------------------------------------|
A|----------3---3--3----3--3---2--0---|
E|-5--3--5----------------------------|

G|-------------------------------|
D|-------------------------------|
A|----5-----5---5--5----5--5---5-|
E|-3-----3-----------------------|

G|------------------------------------|
D|------------------------------------|
A|----------3---3--3----3--3---2--0---|
E|-5--3--5----------------------------|

G|-------------------------------|
D|-------------------------------|
A|----5-----5---5--5----5--5---5-|
E|-3-----3-----------------------|

G|-----------------------|
D|-----------------------|
A|--------3---3--5--5--5-|
E|-5--3------------------|

| /  slide up
| \  slide down
| h  hammer-on
| p  pull-off
| ~  vibrato
| +  harmonic
| x  Mute note
===============================================================================
Comments