Foo Fighters - Alone And Easy Target Chords & Tabs

 

Alone And Easy Target Chords & Tabs

Foo Fighters Chords & Tabs

Version: 1 Type: Bass Tab 2 ratings
1 star 2 stars 3 stars 4 stars 5 stars
comments

Alone And Easy Target Bass Tab

Alone and Easy Target- by dave grohl and the foo fighters
tabbed by- weevil(sub@servtech.com)

DROPPED D TUNING

verse
G|----------------------------------------------------------------
D|----------------------------------------------------------------
A|----------------------------------------------------------------
D|-0--0-0-0-0-0-0-0-0-0-0-0-0-0--4-4-4-4-4-2-2-2-2-2-2-2----------

chorus    
G|----------------------------------------------------------------
D|----------------------------------------------------------------
A|------------------------------------------------------3-3-3-3-3-
D|-0--0--3---5---5---3----0--0--3-7--7-3----3-0-3-0-3-0-----------
[ Tab from: http://www.guitartabs.cc/tabs/f/foo_fighters/alone_and_easy_target_btab.html ]
bridge
G|----------------------------------------------------------------
D|----------------------------------------------------------------
A|----------------------------------------------------------------
D|---5-5-5-5-5-5-5-5-5--3--5-5-5-5-5-5-5-5-5-5-5-5-5-3------------

G|----------------------------------------------------------------
D|----------------------------------------------------------------
A|----------------------------------------------------------------
D|--7-7-7-7-7-7-7-7-7-7-10--7-7-7-7-7-7-7-7-7-7-7-7-7-7-10-------

G|----------------------------------------------------------------
D|----------------------------------------------------------------
A|----------------------------------------------------------------
D|----------------------------------------------------------------


Comments