Foo Fighters - All My Life Chords & Tabs

 

All My Life Chords & Tabs

Foo Fighters Chords & Tabs

Version: 9 Type: Tab 0 ratings
1 star 2 stars 3 stars 4 stars 5 stars
comments

All My Life Tab

the foo figthers all my life
WRITTEN BY=DAVE GRHOL
TABBED BY=MONKEYMAN8     EMAIL=MONKEYSLAG@HOTMAIL.COM
INTRO

PM____________
E-------------------------
B-------------------------
G-------------------------
D-------------------------
A-5-5-5-------------------
E-3-3-3-------------------


"ALL MY LIFE IVE BEEN SEARCHING..."

PLAY IT UP TILL DAVE GROHL STOPS SINGING


VERSE

E-------------------------------
B-------------------------------
G-------------------------------
D-------------------------------
A--5-5---5-5----5-5----5--7-7-7-
E--3-3-0-3-3--0-3-3-0--3--5-5-5-



E-------------------------------
B-------------------------------
G-------------------------------
D-------------------------------
A--5-5---5-5----5-5----5--8-8-8-
E--3-3-0-3-3--0-3-3-0--3--6-6-6-



E-------------------------------
B-------------------------------
G-------------------------------
D-------------------------------
A--5-5---5-5----5-5----5---5----
E--3-3-0-3-3--0-3-3-0--3-0-3----


CHORUS


[ Tab from: http://www.guitartabs.cc/tabs/f/foo_fighters/all_my_life_tab_ver_9.html ]
E-------------------------------
B-------------------------------
G-------------------------------
D-8-----------------------------
A-6--5--3-3--8------------------
E----3--0-1--6------------------
  X  X  X X  X
  16 16 8 8  8





VERSE

E-------------------------------
B-------------------------------
G-------------------------------
D-------------------------------
A--5-5---5-5----5-5----5--7-7-7-
E--3-3-0-3-3--0-3-3-0--3--5-5-5-



E-------------------------------
B-------------------------------
G-------------------------------
D-------------------------------
A--5-5---5-5----5-5----5--8-8-8-
E--3-3-0-3-3--0-3-3-0--3--6-6-6-



E-------------------------------
B-------------------------------
G-------------------------------
D-------------------------------
A--5-5---5-5----5-5----5---5----
E--3-3-0-3-3--0-3-3-0--3-0-3----


CHORUS


E-------------------------------
B-------------------------------
G-------------------------------
D-8-----------------------------
A-6--5--3-3--8------------------
E----3--0-1--6------------------
  X  X  X X  X
  16 16 8 8  8





THANXS FOR READING THIS TAB HOPE YOU LIKE IT
Comments